Oops, an error
Loading. Please wait.

Family Tradition bass

version 1
version 1

Whole song

Interactive

2,399 views 6 this week
no commentswrite comment
1 2 3 4 5
2 more votes to show rating
add to favorites
×
Save as Personal and add changes to this tab that will be seen only by you. Learn more ›
×
You can save this tab as Personal to edit and correct it or add notes. All changes will be seen only by you. Learn more »
launch autoscroll
font size
0
reset
guitar tuner
edit
Autoscroll
slow
fast
+/-
esc
set tempo
stop
+++++++++++++++++++++++++++++++++
| Senses Fail- Family Tradition |
+++++++++++++++++++++++++++++++++


"I hope you're proud of me..."


Tuning: Drop C (CADG)


Intro
1.
G|-----------------------------------------------|
D|-----------------------------------------------|
A|-3~-333~-333~-333~-333~-333~--0~-00000-00------|--x2
C|------------------------------------------4-5~-|

Verse
"I try to be the one that everybody loves..."
2.
G|-----------------------------------------------------------------------|
D|-----------------------------------------------------------------------|
A|-----------------------------------00000000-0000-----------------------|--x2
C|-0~---------------------------0000--------------7777-55555555-55555555-|

Pre-Chorus
"Now these unsightly marks define me..."
3.
G|-----------------------------------|
D|-----------------------------------|
A|-----------------------------------|
C|-7~---------------------------7777-|

Chorus
"So help me..."
4.
G|-------------------------------------------------------------------------|
D|-------------------------------------------------------------------------|
A|-00000000-00000000-------------------------------------------------------|
C|-------------------55555555-55555555-00000000-00000000-77777777-77777777-|

"Forgive me I inherited this..."
5.
G|-------------------------------------------------------------------------|
D|-------------------------------------------------------------------------|
A|-00000000-0000-----------------------------------------------------------|
C|--------------7777-55555555-55555555-00000000-00000000-7~----------------|

Outro
6.
G|-----------------------------------------------|
D|-----------------------------------------------|
A|-3~-333~-333~-333~-333~-333~--0~-00000-00------|--x2
C|------------------------------------------4-5~-|

Verse
"My father taught me..."
7.
G|-----------------------------------------------------------------------|
D|-----------------------------------------------------------------------|
A|-----------------------------------00000000-0000-----------------------|--x2
C|-0~---------------------------0000--------------7777-55555555-55555555-|

Pre-Chorus
"I curse reflections everyday..."
8.
G|-----------------------------------|
D|-----------------------------------|
A|-----------------------------------|
C|-7~---------------------------7777-|

Chorus
"So help me..."
9.
G|-------------------------------------------------------------------------|
D|-------------------------------------------------------------------------|
A|-00000000-00000000-------------------------------------------------------|--x2
C|-------------------55555555-55555555-00000000-00000000-77777777-77777777-|

Bridge
"Here is my own family tradition..."
10.
G|--------------------------------------------------------|
D|--------------------------------------------------------|
A|--------------------------------------------------------|
C|-55555x-------77777x--------55555x--------77777x--------|

"Is there a way?"
11.
G|-------------------------------------------------------------------------|
D|-------------------------------------------------------------------------|
A|-00000022-22223333-------------------00000022-22223333-------------------|
C|-------------------55555555-55555555-------------------55555555-55555555-|

"Is this my fate?..."
12.
G|--------------------------------------------------------------------------|
D|--------------------------------------------------------------------------|
A|-00000022-22223333--------------------------------------------------------|
C|-------------------77777777-77777777-55555555-55555555-7~---------5~--7~--|

Chorus
"So help me..."
13.
G|-------------------------------------------------------------------------|
D|-------------------------------------------------------------------------|
A|-00000000-00000000-------------------------------------------------------|--x4
C|-------------------55555555-55555555-00000000-00000000-77777777-77777777-|

Outro
"I hope you're proud of me..."
14.
G|-------------------------------------------------------------|
D|-------------------------------------------------------------|
A|-3~-333~-333~-333~-333~-333~--0~-00000-0---------------------|
C|-----------------------------------------7-5~----------------|

Please rate thanks!!


Lyrics:

I try to be the one that everybody loves
Where has that gotten me?
I tear myself to shreds to prove that I'm someone
That I could never be
Now these unsightly marks define me

So help me
Please someone come quick
I think I am losing it
Forgive me I inherited this
From a stranger I'll never miss
I'm sick

My father taught me firsthand how to be set free
Give up and run away
I wish I could drain out his half of blood in me
But I'd still have his face
I curse reflections everyday

Here is my own family tradition
Following footsteps into addiction
So is there a way
That I can find peace while still numbing my pain?
Is this my fate?
Cause your only son still can't seem to find his way

So father where the hell are you now?
I think that you would be proud
Your son, who so unluckily
Fell right next to the tree

I hope you're proud of me
I hope you're proud...



+++++++++++++++++++++++++++++++++
| Raileff                       |
| Underground__Dora@Hotmail.Com |
+++++++++++++++++++++++++++++++++

            
            
Suggest correction
Creating personal tab
Creating personal tab
You can edit any tab online and save it as your Personal.

You can edit, replace or remove any tab part or add personal notes – all changes will be seen only by you.

Personal tabs can be accessed anytime from any device, even offline.
Learn more »
Give kudos to tab author, rate the tab!
1 2 3 4 5
comments
print report bad tab
guest
You may want to rate the tab now too:
select rating
Wanna post a correction for this tab? Suggest correction