Oops, an error
Loading. Please wait.

Let It Enfold You tab

version 4
version 4

Whole song

Interactive

381 views 1 this week
no commentswrite comment
1 2 3 4 5
3 more votes to show rating
add to favorites
×
Save as Personal and add changes to this tab that will be seen only by you. Learn more ›
×
You can save this tab as Personal to edit and correct it or add notes. All changes will be seen only by you. Learn more »
launch autoscroll
font size
0
reset
how to read this tab
guitar tuner
edit
Autoscroll
slow
fast
+/-
esc
set tempo
stop
Collected/Tabbed By: Derek
Email: DCLine320
Artist: Senses Fail
Album: Let It Enfold You Special Edition

Sorry For the kind of double post of this..
when i submitted it i did something and it only sent
about half of the whole album...
THIS IS ALL 18 SONGS!!!

This is an awesome album, and its really easy to play...
I collected some tabs and tabbed my own...
or I edited other peoples to make them right for my ear...
I listed the original tabber with the song..
Drop D tuning except for one or two special ocations which
are listed at the begining of the tab....

Here are the tracks..
1. Tie Her Down
2. Lady In A Blue Dress
3. You're Cute When You Scream
4. Buried A Lie
5. Bite To Break Skin
6. Rum Is For Drinking, Not For Burning
7. Slowdance
8. Choke On This
9. NJ Falls Into The Atlantic
10. Let It Enfold You
11. Irony Of Dying On Your Birthday
12. Angela Baker And My Obsession With Fire
13. Martini Kiss
14. Institutionalized
15. American Death
16. Lady In A Blue Dress (Acoustic)
17. Buried A Lie (Acoustic)
18. Rum Is For Drinking, Not For Burning (Acoustiic)

============================================================================
Some Credit To J-DIZZLE
Tie Her Down (3:09)
Track Number 1

Guitar One:

Intro: (x2)
e|------------------------------------------------------------------------|
B|------------------------------------------------------------------------|
G|--------------------------------------------7-7-7-7-7-7-7---------------|
D|---12-12-12-12-12-12-12----7-7-7-7-7-7-7----5-5-5-5-5-5-5--0-4h5h4-0----|
A|---9--9--9--9--9--9--9-----0-0-0-0-0-0-0----5-5-5-5-5-5-5--0-4h5h4-0----|
D|---9--9--9--9--9--9--9-----0-0-0-0-0-0-0----5-5-5-5-5-5-5--0-4h5h4-0----|


Verse: (x2)
e|------------------------------------------|
B|------------------------------------------|
G|------------------------------------------|
D|---9--9-----0--0-----5--5-----0-4h5h4-0---|
A|---9--9-----0--0-----5--5-----0-4h5h4-0---|
D|---9--9-----0--0-----5--5-----0-4h5h4-0---|

Verse Cont.: (x2)
e|------------------------------------------------------------------------|
B|------------------------------------------------------------------------|
G|--------------------------------------------7-7-7-7-7-7-7---------------|
D|---12-12-12-12-12-12-12----7-7-7-7-7-7-7----5-5-5-5-5-5-5--0-4h5h4-0----|
A|---9--9--9--9--9--9--9-----0-0-0-0-0-0-0----5-5-5-5-5-5-5--0-4h5h4-0----|
D|---9--9--9--9--9--9--9-----0-0-0-0-0-0-0----5-5-5-5-5-5-5--0-4h5h4-0----|


Pre-Chorus:
E|--------------------------------------------------|
B|--------------------------------------------------|
G|--------------------------------------------------|
D|22---22---44---55---55--------22---22---44---5~---|
A|22---22---44---55---55--------22---22---44---5~---|
D|22---22---44---55---55--------22---22---44---5~---|
PM..   ..   ..   ..   ..        ..   ..   ..   .


Chorus: (x2)
e|-------------------------------------------------------------------|
B|-------------------------------------------------------------------|
G|-------------------------------------------------------------------|
D|-9999999999999999999999999999999-0-5555555555555555555555555555555-|
A|-9999999999999999999999999999999-0-5555555555555555555555555555555-|
D|-9999999999999999999999999999999-0-5555555555555555555555555555555-|


Verse: (x2)
e|------------------------------------------|
B|------------------------------------------|
G|------------------------------------------|
D|---9--9-----0--0-----5--5-----0-4h5h4-0---|
A|---9--9-----0--0-----5--5-----0-4h5h4-0---|
D|---9--9-----0--0-----5--5-----0-4h5h4-0---|

Verse Cont.: (x2)
e|------------------------------------------------------------------------|
B|------------------------------------------------------------------------|
G|--------------------------------------------7-7-7-7-7-7-7---------------|
D|---12-12-12-12-12-12-12----7-7-7-7-7-7-7----5-5-5-5-5-5-5--0-4h5h4-0----|
A|---9--9--9--9--9--9--9-----0-0-0-0-0-0-0----5-5-5-5-5-5-5--0-4h5h4-0----|
D|---9--9--9--9--9--9--9-----0-0-0-0-0-0-0----5-5-5-5-5-5-5--0-4h5h4-0----|


Pre-Chorus:
E|--------------------------------------------------|
B|--------------------------------------------------|
G|--------------------------------------------------|
D|22---22---44---55---55--------22---22---44---5~---|
A|22---22---44---55---55--------22---22---44---5~---|
D|22---22---44---55---55--------22---22---44---5~---|
PM..   ..   ..   ..   ..        ..   ..   ..   .


Chorus: (x2)
e|-------------------------------------------------------------------|
B|-------------------------------------------------------------------|
G|-------------------------------------------------------------------|
D|-9999999999999999999999999999999-0-5555555555555555555555555555555-|
A|-9999999999999999999999999999999-0-5555555555555555555555555555555-|
D|-9999999999999999999999999999999-0-5555555555555555555555555555555-|

Bridge: (x2)
E|---------------------------------------------------|
B|---------------------------------------------------|
G|---------------------------------------------------|
D|-0~-----------4~-----------9~-----------5~---------|
A|-0~-----------4~-----------9~-----------5~---------|
D|-0~-----------4~-----------9~-----------5~---------|

Bridge Cont.: (x1)
E|-----------------------------------------------------------------|
B|-----------------------------------------------------------------|
G|-----------------------------------------------------------------|
D|-00000000000000000000-44444444444444444444-99999999999999999999--|
A|-00000000000000000000-44444444444444444444-99999999999999999999--|
D|-00000000000000000000-44444444444444444444-99999999999999999999--|
PM .................... .................... ....................

E|-----------------------|
B|-----------------------|
G|-----------------------|
D|-5x5x5x5x5x5x5x5x5x5x--|
A|-5x5x5x5x5x5x5x5x5x5x--|
D|-5x5x5x5x5x5x5x5x5x5x--|
PM . . . . . . . . . .

Outro: (x3)
E|----------------------------------------------------------------|
B|----------------------------------------------------------------|
G|----------------------------------------------------------------|
D|-0-0-0-0-0-0-0-0---0-0-0-0-0-0-0-4-4-4-4-4-4-4-4--4-4-4-4-4-4-4-|
A|-0-0-0-0-0-0-0-0---0-0-0-0-0-0-0-4-4-4-4-4-4-4-4--4-4-4-4-4-4-4-|
D|-0-0-0-0-0-0-0-0---0-0-0-0-0-0-0-4-4-4-4-4-4-4-4--4-4-4-4-4-4-4-|

E|----------------------------------------------------------------|
B|----------------------------------------------------------------|
G|----------------------------------------------------------------|
D|-9-9-9-9-9-9-9-9-9-9-9-9-9-9-9-9-5-5-5-5-5-5-5-5-5--5-5-5-5-5-5-|
A|-9-9-9-9-9-9-9-9-9-9-9-9-9-9-9-9-5-5-5-5-5-5-5-5-5--5-5-5-5-5-5-|
D|-9-9-9-9-9-9-9-9-9-9-9-9-9-9-9-9-5-5-5-5-5-5-5-5-5--5-5-5-5-5-5-|


End On:
E|----|
B|----|
G|----|
D|-0~-|
A|-0~-|
D|-0~-|

//////////////////////////////////////\\\\\\\\\\\\\\\\\\\\\\\\\\\\\\\\\\\\\\

Guitar 2:
Intro: (x2)
E|-----------------------------------------------------------|
B|-----------------------------------------------------------|
G|-----------------------------------------------------------|
D|9-9-9-9-9-9-9--0-0-0-0-0-0-0--5-5-5-5-5-5-5--0-4h5p4-0-----|
A|9-9-9-9-9-9-9--0-0-0-0-0-0-0--5-5-5-5-5-5-5--0-4h5p4-0-----|
D|9-9-9-9-9-9-9--0-0-0-0-0-0-0--5-5-5-5-5-5-5--0-4h5p4-0-----|

Verse: (x2)
e|------------------------------------------|
B|------------------------------------------|
G|------------------------------------------|
D|---9--9-----0--0-----5--5-----0-4h5h4-0---|
A|---9--9-----0--0-----5--5-----0-4h5h4-0---|
D|---9--9-----0--0-----5--5-----0-4h5h4-0---|

Verse Cont.: (x2)
e|-------------------------------------------------------------------|
B|-10-------10-------10----------------------------------------------|
G|-------------------------12-------12-------12----11-------11-------|
D|----12-12----12-12----12----12-12----12-12----12----12-12----12-12-|
A|-------------------------------------------------------------------|
D|-------------------------------------------------------------------|

e|-------------------------|
B|-------------------------|
G|-------------------------|
D|-11----11----11-12-11----|
A|----12----12----------12-|
D|-------------------------|


Pre-Chorus:
E|-----------------------------------------------------------------|
B|-----------------------------------------------------------------|
G|-7-7-7-7-7-7-7-7-7-7-7-7-9-9-9-9-7-7-7-7-7-7-7-7-7-7-7-7-9-9-9-9-|
D|-x-x-x-x-x-x-x-x-x-x-x-x-x-x-x-x-x-x-x-x-x-x-x-x-x-x-x-x-x-x-x-x-|
A|-5-5-5-5-5-5-5-5-5-5-5-5-7-7-7-7-5-5-5-5-5-5-5-5-5-5-5-5-7-7-7-7-|
D|-----------------------------------------------------------------|

E|-------------------------------------|
B|-------------------------------------|
G|-7-7-7-7-7-7-7-7-7-7-7-7-9-9-9-9-7x--|
D|-x-x-x-x-x-x-x-x-x-x-x-x-x-x-x-x-xx--|
A|-5-5-5-5-5-5-5-5-5-5-5-5-7-7-7-7-5x--|
D|-------------------------------------|

Chorus:
e|---------------------------------------------|
B|---------------------------------------------|
G|-12-12-12-12-12-12-11-11-11-11-11-11-7-7-7-7-|
D|-x--x--x--x--x--x--x--x--x--x--x--x--x-x-x-x-|
A|-10-10-10-10-10-10-9--9--9--9--9--9--5-5-5-5-| 
D|---------------------------------------------|

e|---------------------------------------------|
B|---------------------------------------------|
G|-12-12-12-12-12-12-11-11-11-11-11-11-7-7-7-7-|
D|-x--x--x--x--x--x--x--x--x--x--x--x--x-x-x-x-|
A|-10-10-10-10-10-10-9--9--9--9--9--9--5-5-5-5-| 
D|---------------------------------------------|

e|---------------------------------------------|
B|---------------------------------------------|
G|-12-12-12-12-12-12-11-11-11-11-11-11-7-7-7-7-|
D|-x--x--x--x--x--x--x--x--x--x--x--x--x-x-x-x-|
A|-10-10-10-10-10-10-9--9--9--9--9--9--5-5-5-5-| 
D|---------------------------------------------|

e|--------------------------------------------------|
B|--------------------------------------------------|
G|-12-12-12-12-12-12-11-11-11-11-11-11-7-7/9-9-9-9--|
D|-x--x--x--x--x--x--x--x--x--x--x--x--x-x/x-x-x-x--|
A|-10-10-10-10-10-10-9--9--9--9--9--9--5-5/7-7-7-7--|
D|--------------------------------------------------|

Chorus Cont.:
e|---------------------------------------------|
B|---------------------------------------------|
G|-12-12-12-12-12-12-11-11-11-11-11-11-7-7-7-7-|
D|-x--x--x--x--x--x--x--x--x--x--x--x--x-x-x-x-|
A|-10-10-10-10-10-10-9--9--9--9--9--9--5-5-5-5-| 
D|---------------------------------------------|

e|---------------------------------------------|
B|---------------------------------------------|
G|-12-12-12-12-12-12-11-11-11-11-11-11-7-7-7-7-|
D|-x--x--x--x--x--x--x--x--x--x--x--x--x-x-x-x-|
A|-10-10-10-10-10-10-9--9--9--9--9--9--5-5-5-5-| 
D|---------------------------------------------|

e|---------------------------------------------|
B|---------------------------------------------|
G|-12-12-12-12-12-12-11-11-11-11-11-11-7-7-7-7-|
D|-x--x--x--x--x--x--x--x--x--x--x--x--x-x-x-x-|
A|-10-10-10-10-10-10-9--9--9--9--9--9--5-5-5-5-| 
D|---------------------------------------------|

e|----------------------------------------|
B|----------------------------------------|
G|-9-9-9-9-9-9-9-9--11-11-11-11--12x------|
D|-x-x-x-x-x-x-x-x---x--x--x--x---xx------|
A|-7-7-7-7-7-7-7-7---9--9--9--9--10x------| 
D|----------------------------------------|



Verse: (x2)
e|------------------------------------------|
B|------------------------------------------|
G|------------------------------------------|
D|---9--9-----0--0-----5--5-----0-4h5h4-0---|
A|---9--9-----0--0-----5--5-----0-4h5h4-0---|
D|---9--9-----0--0-----5--5-----0-4h5h4-0---|

Verse Cont.: (x2)
e|-------------------------------------------------------------------|
B|-10-------10-------10----------------------------------------------|
G|-------------------------12-------12-------12----11-------11-------|
D|----12-12----12-12----12----12-12----12-12----12----12-12----12-12-|
A|-------------------------------------------------------------------|
D|-------------------------------------------------------------------|

e|-------------------------|
B|-------------------------|
G|-------------------------|
D|-11----11----11-12-11----|
A|----12----12----------12-|
D|-------------------------|


Pre-Chorus:
E|-----------------------------------------------------------------|
B|-----------------------------------------------------------------|
G|-7-7-7-7-7-7-7-7-7-7-7-7-9-9-9-9-7-7-7-7-7-7-7-7-7-7-7-7-9-9-9-9-|
D|-x-x-x-x-x-x-x-x-x-x-x-x-x-x-x-x-x-x-x-x-x-x-x-x-x-x-x-x-x-x-x-x-|
A|-5-5-5-5-5-5-5-5-5-5-5-5-7-7-7-7-5-5-5-5-5-5-5-5-5-5-5-5-7-7-7-7-|
D|-----------------------------------------------------------------|

E|-------------------------------------|
B|-------------------------------------|
G|-7-7-7-7-7-7-7-7-7-7-7-7-9-9-9-9-7x--|
D|-x-x-x-x-x-x-x-x-x-x-x-x-x-x-x-x-xx--|
A|-5-5-5-5-5-5-5-5-5-5-5-5-7-7-7-7-5x--|
D|-------------------------------------|

Chorus:
e|---------------------------------------------|
B|---------------------------------------------|
G|-12-12-12-12-12-12-11-11-11-11-11-11-7-7-7-7-|
D|-x--x--x--x--x--x--x--x--x--x--x--x--x-x-x-x-|
A|-10-10-10-10-10-10-9--9--9--9--9--9--5-5-5-5-| 
D|---------------------------------------------|

e|---------------------------------------------|
B|---------------------------------------------|
G|-12-12-12-12-12-12-11-11-11-11-11-11-7-7-7-7-|
D|-x--x--x--x--x--x--x--x--x--x--x--x--x-x-x-x-|
A|-10-10-10-10-10-10-9--9--9--9--9--9--5-5-5-5-| 
D|---------------------------------------------|

e|---------------------------------------------|
B|---------------------------------------------|
G|-12-12-12-12-12-12-11-11-11-11-11-11-7-7-7-7-|
D|-x--x--x--x--x--x--x--x--x--x--x--x--x-x-x-x-|
A|-10-10-10-10-10-10-9--9--9--9--9--9--5-5-5-5-| 
D|---------------------------------------------|

e|--------------------------------------------------|
B|--------------------------------------------------|
G|-12-12-12-12-12-12-11-11-11-11-11-11-7-7/9-9-9-9--|
D|-x--x--x--x--x--x--x--x--x--x--x--x--x-x/x-x-x-x--|
A|-10-10-10-10-10-10-9--9--9--9--9--9--5-5/7-7-7-7--|
D|--------------------------------------------------|

Chorus Cont.:
e|---------------------------------------------|
B|---------------------------------------------|
G|-12-12-12-12-12-12-11-11-11-11-11-11-7-7-7-7-|
D|-x--x--x--x--x--x--x--x--x--x--x--x--x-x-x-x-|
A|-10-10-10-10-10-10-9--9--9--9--9--9--5-5-5-5-| 
D|---------------------------------------------|

e|---------------------------------------------|
B|---------------------------------------------|
G|-12-12-12-12-12-12-11-11-11-11-11-11-7-7-7-7-|
D|-x--x--x--x--x--x--x--x--x--x--x--x--x-x-x-x-|
A|-10-10-10-10-10-10-9--9--9--9--9--9--5-5-5-5-| 
D|---------------------------------------------|

e|---------------------------------------------|
B|---------------------------------------------|
G|-12-12-12-12-12-12-11-11-11-11-11-11-7-7-7-7-|
D|-x--x--x--x--x--x--x--x--x--x--x--x--x-x-x-x-|
A|-10-10-10-10-10-10-9--9--9--9--9--9--5-5-5-5-| 
D|---------------------------------------------|

e|----------------------------------------|
B|----------------------------------------|
G|-9-9-9-9-9-9-9-9--11-11-11-11--12x------|
D|-x-x-x-x-x-x-x-x---x--x--x--x---xx------|
A|-7-7-7-7-7-7-7-7---9--9--9--9--10x------| 
D|----------------------------------------|

Bridge: (x3)
E|-----------------------------------------------------------------------| 
B|10-----10-----10----10-------10-------10-------------------------------| 
G|--------------------------------------------12----12-12----12-12-------|
D|--12-12--12-12---12----12-12----12-12----12----12-------12-------12----|
A|-----------------------------------------------------------------------|
D|-----------------------------------------------------------------------|

E|-------------------------------------------------------------------------|
B|-------------------------------------------------------------------------|
G|-------------------------10-------10-------10----10-------10-------10----|
D|-12----12-12----12-12----------------------------------------------------|
A|----12-------12-------12----12-12----12-12----12----12-12----12-12----12-|
D|-------------------------------------------------------------------------|

E|----------------------------------------|
B|----------------------------------------|
G|----------------------------------------|
D|-12-------12-------12----11h12-11h12-11-|
A|----12-12----12-12----12----------------|
D|----------------------------------------|


Outro:(x3)
E|----------------------------------------------------------------|
B|----------------------------------------------------------------|
G|----------------------------------------------------------------|
D|-0-0-0-0-0-0-0-0---0-0-0-0-0-0-0-4-4-4-4-4-4-4-4--4-4-4-4-4-4-4-|
A|-0-0-0-0-0-0-0-0---0-0-0-0-0-0-0-4-4-4-4-4-4-4-4--4-4-4-4-4-4-4-|
D|-0-0-0-0-0-0-0-0---0-0-0-0-0-0-0-4-4-4-4-4-4-4-4--4-4-4-4-4-4-4-|

E|----------------------------------------------------------------|
B|----------------------------------------------------------------|
G|----------------------------------------------------------------|
D|-9-9-9-9-9-9-9-9-9-9-9-9-9-9-9-9-5-5-5-5-5-5-5-5-5--5-5-5-5-5-5-|
A|-9-9-9-9-9-9-9-9-9-9-9-9-9-9-9-9-5-5-5-5-5-5-5-5-5--5-5-5-5-5-5-|
D|-9-9-9-9-9-9-9-9-9-9-9-9-9-9-9-9-5-5-5-5-5-5-5-5-5--5-5-5-5-5-5-|


End On:
E|----|
B|----|
G|----|
D|-0~-|
A|-0~-|
D|-0~-|

============================================================================

All Credit To nottoshabby
Lady In A Blue Dress
Track Number 2

Guitar One:
Intro
part 1-delay and echo plex-x2
e|----------------------------------------------------|
b|----------------------------------------------------|
g|-14-14-14-14-14-14-99999/11-11-11-11-11-11-11-99999/|
d|--x--x--x--x--x--x-xxxxx--x--x--x--x--x--x--x-xxxxx-|
a|-12-12-12-12-12-12-77777/-9--9--9--9--9--9--9-77777-|
e|----------------------------------------------------|


part 2-same as part 1-heavily distorted-x2

Verse-Clean-x4
e|----------------------------------------------------|
b|----------------------------------------------------|
g|-14-14-14-14-14-14-99999/11-11-11-11-11-11-11-99999/|
d|--x--x--x--x--x--x-xxxxx--x--x--x--x--x--x--x-xxxxx-|
a|-12-12-12-12-12-12-77777/-9--9--9--9--9--9--9-77777/|
e|----------------------------------------------------|

Chorus-Chorus Effect-x2
e|--------------------------------|\
b|--------10----------10----------| \
g|-----11----11----11---11--------|  \ x3
d|--12----------12--------12------|  /
a|--------------------------------| /
e|--------------------------------|/

e|--------------------------------|
b|--------------------------------|
g|--------------------------------|
d|--12-12-12-12-12-12-12-12-------|
a|--------------------------------|
e|--------------------------------|

Bridge
e|--------------------------------------------------|\
b|--------------------------------------------------| \
g|-11111111111111111111111111/14-7777777771212121299|  \x3
d|--x-x-x-x-x-x-x-x-x-x-x-x-x----xxxxxxxxx-x-x-x-xxx|  /
a|--9-9-9-9-9-9-9-9-9-9-9-9-9/12-5555555551010101077| /
e|--------------------------------------------------|/

e|-------------------------------------------------|
b|-------------------------------------------------|
g|-11111111111111111111111111/14-7777777777777777--|
d|--x-x-x-x-x-x-x-x-x-x-x-x-x----xxxxxxxxxxxxxxxx--|
a|--9-9-9-9-9-9-9-9-9-9-9-9-9/12-5555555555555555--|
e|-------------------------------------------------|

Verse 2-Clean
e|----------------------------------------------------|
b|----------------------------------------------------|
g|-14-14-14-14-14-14-99999/11-11-11-11-11-11-11-99999/|
d|--x--x--x--x--x--x-xxxxx--x--x--x--x--x--x--x-xxxxx-|
a|-12-12-12-12-12-12-77777/-9--9--9--9--9--9--9-77777/|
e|----------------------------------------------------|

e|---------------------------------------------|
b|---------------------------------------------|
g|-14-14-14-14-14-14-99999/11-11-11-11-11-11-11|
d|--x--x--x--x--x--x-xxxxx--x--x--x--x--x--x--x|
a|-12-12-12-12-12-12-77777/-9--9--9--9--9--9--9|
e|---------------------------------------------|

Order:
Intro (part 1 and 2)
Verse "just like a lady in a blue dress..."
Chorus "you say that you want respect..."
Verse "so you say that i am rated X..."
Chorus "you say that you want respect..."
Bridge "don't try to think you'll win..."
Verse 2 "just like a lady in a blue dress..."
Chorus "you say that you want respect..."
(NOTE: on last chorus keep playing d|-12-12-12-12-12-12-12-12-| until end)

//////////////////////////////////////\\\\\\\\\\\\\\\\\\\\\\\\\\\\\\\\\\\\\\

Guitar 2
Intro-heavily distorted-(comes in with intro 2 for guitar 1)-x2
e|-------------------------------|
b|-------------------------------|
g|-------------------------------|
d|-9-------0------5------0-------|
a|-9-(x6)--0-(x4)-5-(x6)-0-(x4)--|
d|-9-------0------5------0-------|

Verse-Clean-On Beat
e|-------------------------------|
b|-------------------------------|
g|-------------------------------|
d|-9-------7------5-------7------|
a|-9-(x6)--7-(x2)-5-(x6)--7-(x2)-|
e|-9-------7------5-------7------|

Chorus
e|----------------------------|
b|----------------------------|
g|----------------------------|
d|-0------7-----9------5------|
a|-0-(x8)-7-(x8)9-(x8)-5-(x8)-|
e|-0------7-----9------5------|

Bridge
e|-----------------------------------|\
b|-----------------------------------| \
g|-----------------------------------|  \x3
d|-9-9-9-9-9-9--7--5-5-5-5-5-5--7----|  /
a|-9-9-9-9-9-9--7--5-5-5-5-5-5--7----| /
e|-9-9-9-9-9-9--7--5-5-5-5-5-5--7----|/

e|-----------------------------------|
b|-----------------------------------|
g|-----------------------------------|
d|-9-9-9-9-9-9--7--5-5-5-5-5-5-5-5---|
a|-9-9-9-9-9-9--7--5-5-5-5-5-5-5-5---|
e|-9-9-9-9-9-9--7--5-5-5-5-5-5-5-5---|

Verse 2-Clean-On Beat
e|-------------------------------|
b|-------------------------------|
g|-------------------------------|
d|-9-------7------5-------7------|
a|-9-(x6)--7-(x2)-5-(x6)--7-(x2)-|
e|-9-------7------5-------7------|

e|-----------------------|
b|-----------------------|
g|-----------------------|
d|-9-------7------5------|
a|-9-(x6)--7-(x2)-5-(x5)-|
e|-9-------7------5------|

Order:
Intro
Verse x4 "just like a lady in a blue dress..."
Chorus x4 "you say that you want respect..."
Verse x4 "so you say that i am rated X..."
Chorus x4 "you say that you want respect..."
Bridge "don't try to think you'll win..."
Verse 2 x2 "just like a lady in a blue dress..."
Chorus x2 "you say that you want respect..."
End on:
e|----|
b|----|
g|----|
d|-0~-|
a|-0~-|
d|-0~-|


============================================================================

Credited To run5hom
You're Cute When You Scream
Track Number 3

Guitar 1
Intro
e|-------------------|
 |-------------------|
 |-------------------|
 |-5~----8p5-7p5-5h7-|
 |-5~----------------|
E|-5~----------------|

Chorus - "Fuck with, my heart..." (x4)
e|--------------------------------------|
 |--------------------------------------|
 |--------------------------------------|
 |-55-8p7h8-555-8p7h8-555-8p7h8-111-333-|
 |-55-------555-------555-------111-333-|
E|-55-------555-------555-------111-333-|

Verse - "And all I know is your cute..."
e|----------------------------------------|
 |----------------------------------------|
 |-------------------33333333-------------|
 |-11111111-33333333-33333333-55555-33333-|
 |-11111111-33333333-11111111-55555-33333-|
E|-11111111-33333333----------55555-33333-|


Pre-Chorus - "You know that you are worthless..." (X2)
e|-------------------------------------|
 |-------------------------------------|
 |-------------------33333333----------|
 |-55555555-11111111-33333333-33333333-|
 |-55555555-11111111-11111111-33333333-|
E|-55555555-11111111----------33333333-|

Play Chorus
Play Verse
Play Pre-Chorus

Bridge
e|------------------------------------------------------|
 |------------------------------------------------------|
 |------------------------------------------------------|
 |-1~----3~----0~----8~--7~----1~----3~----0~----8~--7~-|
 |-1~----3~----0~----8~--7~----1~----3~----0~----8~--7~-|
E|-1~----3~----0~----8~--7~----1~----3~----0~----8~--7~-|

Bridge Cont. - "I'll take you, to the top, of this building..."
e|------------------------------------------------------|
 |------------------------------------------------------|
 |------------------------------------------------------|
 |-1-1111111111-33333333333-00000000000-8888888-7777777-|
 |-1-1111111111-33333333333-00000000000-8888888-7777777-|
E|-1-1111111111-33333333333-00000000000-8888888-7777777-|
PM   .......... ........... ........... ....... .......

Bridge Cont. - "The street, the street..."
e|------------------------------------------------|
 |------------------------------------------------|
 |------------------------------------------------|
 |-1-1111111111-33333333333-00000000000-8888888-7-|
 |-1-1111111111-33333333333-00000000000-8888888-7-|
E|-1-1111111111-33333333333-00000000000-8888888-7-|
PM   .......... ........... ...........

Ending - "You know that you are worthless..."
e|----------------------------------|
 |----------------------------------|
 |-------------------333x-----------|
 |-55555555-11111111-333x--33333333-|
 |-55555555-11111111-111x--33333333-|
E|-55555555-11111111-------33333333-|

Ending Cont. - "The games that you play princess..." (X2)
e|-------------------------------------|
 |-------------------------------------|
 |-------------------33333333----------|
 |-55555555-11111111-33333333-33333333-|
 |-55555555-11111111-11111111-33333333-|
E|-55555555-11111111----------33333333-|

Ending Cont.- "This time I win, so here's your kiss goodbye."
e|---------------------------|
 |---------------------------|
 |---------------------------|
 |-55--55--55--5-111-333-5-5-|
 |-55--55--55--5-111-333-5-5-|
E|-55--55--55--5-111-333-5-5-|


//////////////////////////////////////\\\\\\\\\\\\\\\\\\\\\\\\\\\\\\\\\\\\\\

Guitar 2

Intro
e|-------------------|
 |-------------------|
 |-------8p5-7p5-5h7-|
 |-5~----------------|
 |-5~----------------|
E|-5~----------------|

Chorus - "Play with, my heart..."
e|--------------------------------------|
 |--------------------------------------|
 |----7p5h7-----7p5h7-----7p5h7---------|
 |-55-------555-------555-------111-333-|
 |-55-------555-------555-------111-333-|
E|-55-------555-------555-------111-333-|

Verse - "And all I know is, revenge is sweet..."
e|---------------------------------------------------|
 |---------------------------------------------------|
 |-333333-555-7777-555-8-7-3333333-555-77777-555555x-|
 |-xxxxxx-xxx-xxxx-xxx-x-x-xxxxxxx-xxx-xxxxx-xxxxxxx-|
 |-111111-333-5555-333-6/5-1111111-333-55555-333333x-|
E|---------------------------------------------------|

Pre-Chorus - "You know, that I am worthless..." (X2)
e|--------------------------------------------|
 |--------------------------------------------|
 |-33333333-88888888-77777777-5555555-888-777-|
 |-xxxxxxxx-xxxxxxxx-xxxxxxxx-xxxxxxx-xxx-xxx-|
 |-11111111-66666666-55555555-3333333-666/555-|
E|--------------------------------------------|

Repeat Chorus
Repeat Verse
Repeat Pre-Chorus

Bridge - "I'll take you, to the top, of this building..."
e|------------------------------------------------------|
 |------------------------------------------------------|
 |------------------------------------------------------|
 |-1~----3~----0~----8~--7~----1~----3~----0~----8~--7~-|
 |-1~----3~----0~----8~--7~----1~----3~----0~----8~--7~-|
E|-1~----3~----0~----8~--7~----1~----3~----0~----8~--7~-|

Bridge Cont. - "The street, the street..." (strumming not defined) (X2)
e|--------------------------|
 |--------------------------|
 |-3>----5>----7>----8>--7>-|
 |-x>----x>----x>----x>--x>-|
 |-1>----3>----5>----6>--5>-|
E|--------------------------|

Ending - "You know that you are worthless..."
e|-------------------------------------------|
 |-------------------------------------------|
 |-33333333-88888888-7-77x-555555555-888-777-|
 |-xxxxxxxx-xxxxxxxx-x-xxx-xxxxxxxxx-xxx-xxx-|
 |-11111111-66666666-5-55x-333333333-666-555-|
E|-------------------------------------------|

Ending Cont. - "The games that you play princess..."
e|-------------------------------------|
 |-------------------------------------|
 |-33333333-88888888-77777777-55555555-|
 |-xxxxxxxx-xxxxxxxx-xxxxxxxx-xxxxxxxx-
 |-11111111-66666666-55555555-33333333-|
E|-------------------------------------|

Ending Cont. - "This time I win, so here's your kiss goodbye."
e|---------------------------|
 |---------------------------|
 |---------------------------|
 |-55--55--55--5-111-333-5-5-|
 |-55--55--55--5-111-333-5-5-|
E|-55--55--55--5-111-333-5-5-|

============================================================================

Buried A Lie
Credited To Me
Track Number 4

Guitar One

Intro:
e|---------------------------------|
B|---------------------------------|
G|-------2-------------2-----------|
D|-----0---4---2-0---0---4---2-----|
A|---4-------4-----4-------4-------|
D|---------------------------------|

Intro Cont.:(x2)
e|-------------------------------------------------------------|
B|-------------------------------------------------------------|
G|---666-777-1414141414141414-11111111-11/14-99999999-111111---|
D|---xxx-xxx--x-x-x-x-x-x-x-x--x-x-x-x--x/-x-xxxxxxxx--x-x-x---|
A|---444-555-1212121212121212--9-9-9-9--9/12-77777777--9-9-9---|
D|-------------------------------------------------------------|

Pre-Verse:
e|-----------------------------------------------------------------|
B|-----------------------------------------------------------------|
G|-----------------------------------------------------------------|
D|---555---000---555---000---5555---555---000---555---000---5555---|
A|---555---000---555---000---5555---555---000---555---000---5555---|
D|---555---000---555---000---5555---555---000---555---000---5555---|

Verse:
e|---------------------------------------------------------------------|
B|---------------------------------------------------------------------|
G|---------------------------------------------------------------------|
D|-0000000000000000-4444444444444444-9999999999999999-5555555555555555-|
A|-0000000000000000-4444444444444444-9999999999999999-5555555555555555-|
D|-0000000000000000-4444444444444444-9999999999999999-5555555555555555-|
PM ................ ................ ................ ................

Verse Cont.:
e|-------------------------------------------------------------------------|
B|-222-101010-7777-5555-222-101010-7777-8888-222-101010-777-555-33333333---|
G|-------------------------------------------------------------------------|
D|-------------------------------------------------------------------------|
A|-------------------------------------------------------------------------|
D|-------------------------------------------------------------------------|
PM ...  . . . .... .... ...  . . . .... .... ...  . . . ... ... 

Chorus: (x2)
e|-------------------------------------------|
B|---10~--7~--5h7~--10~--7~--5h7~-----5------|
G|---------------------------------7-----7---|
D|-------------------------------------------|
A|-------------------------------------------|
D|-------------------------------------------|


Pre-Verse:
e|-------------------------------------|
B|-------------------------------------|
G|-------------------------------------|
D|---555---000---555---000---5555------|
A|---555---000---555---000---5555------|
D|---555---000---555---000---5555------|



Verse:
e|---------------------------------------------------------------------|
B|---------------------------------------------------------------------|
G|---------------------------------------------------------------------|
D|-0000000000000000-4444444444444444-9999999999999999-5555555555555555-|
A|-0000000000000000-4444444444444444-9999999999999999-5555555555555555-|
D|-0000000000000000-4444444444444444-9999999999999999-5555555555555555-|
PM ................ ................ ................ ................

Verse Cont.:
e|-------------------------------------------------------------------------|
B|-222-101010-7777-5555-222-101010-7777-8888-222-101010-777-555-33333333---|
G|-------------------------------------------------------------------------|
D|-------------------------------------------------------------------------|
A|-------------------------------------------------------------------------|
D|-------------------------------------------------------------------------|
PM ...  . . . .... .... ...  . . . .... .... ...  . . . ... ... 

Chorus: (x4)
e|-------------------------------------------|
B|---10~--7~--5h7~--10~--7~--5h7~-----5------|
G|---------------------------------7-----7---|   <----Note play this
D|-------------------------------------------|        four times...
A|-------------------------------------------|
D|-------------------------------------------|


Bridge:
e|--------------------------------------|
B|--------------------------------------|
G|---7777777777777777-999999-66666666---|
D|---xxxxxxxxxxxxxxxx-xxxxxx-xxxxxxxx---|
A|---5555555555555555-777777-44444444---|
D|--------------------------------------|

e|---------5------------------------5----------------|
B|---2--3-----7--2--5----3----2--3-----7--2--5-------|
G|---------------------------------------------------|
D|---------------------------------------------------|
A|---------------------------------------------------|
D|---------------------------------------------------|


e|-----------------------------------------------|
B|-----------------------------------------------|
G|-----------------------------------------------|
D|-----------------------------------------------|
A|-----------------------------------------------|
D|---555-000-555-000-5555-555-000-555-000-5555---|


e|----------------------------------------|
B|----------------------------------------|
G|----------------------------------------|
D|-555-000-555-000-5555-555-000-5-5555555-|
A|-555-000-555-000-5555-555-000-5-5555555-|
D|-555-000-555-000-5555-555-000-5-5555555-|
                               PM.......

Chorus Three:(x2)
e|-------------------------------------------------------------|
B|-------------------------------------------------------------|
G|---666-777-1414141414141414-11111111-11/14-99999999-111111---|
D|---xxx-xxx--x-x-x-x-x-x-x-x--x-x-x-x--x/-x-xxxxxxxx--x-x-x---|
A|---444-555-1212121212121212--9-9-9-9--9/12-77777777--9-9-9---|
D|-------------------------------------------------------------|

Chorus-Outro:
e|-----------------------------------------|
B|-----------------------------------------|
G|-66-77777777777777-111111111111-66666666-|
D|-xx-xxxxxxxxxxxxxx-x-x-x-x-x-x--xxxxxxxx-|
A|-44-55555555555555-9-9-9-9-9-9--44444444-|
D|-----------------------------------------|

e|----------------------------------------|
B|----------------------------------------|
G|-7777777777777777-111111111111-66666666-|
D|-xxxxxxxxxxxxxxxx-x-x-x-x-x-x--xxxxxxxx-|
A|-5555555555555555-9-9-9-9-9-9--44444444-|
D|----------------------------------------|

Outro:
e|--------------------------------------------------------------------|
B|--------------------------------------------------------------------|
G|----------------------------------------------------------66/1111---|
D|---555---000---555---000---5555---555---000---555---000---xx/-x-x---|
A|---555---000---555---000---5555---555---000---555---000---44/-9-9---|
D|---555---000---555---000---5555---555---000---555---000-------------|

End On:                                                        ^
e|--------|                                                    |
B|--------|                                             - - - - 
G|--------|                                            |
D|---0~---|                                      I'm not totally sure about
A|---0~---|                                   this part, guitar one does do
D|---0~---|                                  something...i play this...



//////////////////////////////////////\\\\\\\\\\\\\\\\\\\\\\\\\\\\\\\\\\\\\\

Guitar 2


Intro: 
e|---------------------------------------|
B|---------------------------------------|
G|---11111111---777777---2222---999999---|
D|----9-9-9-9---555555---0000---777777---|
A|----9-9-9-9---555555---0000---777777---|
D|----9-9-9-9---555555---0000---777777---|

e|-----------------------------------|
B|-----------------------------------|
G|---11111111---777777---2222---9~---|
D|----9-9-9-9---555555---0000---7~---|
A|----9-9-9-9---555555---0000---7~---|
D|----9-9-9-9---555555---0000---7~---|

Then...Intro Cont.:(x2)
e|---------------------------------------|
B|---------------------------------------|
G|---11111111---777777---2222---999999---|
D|----9-9-9-9---555555---0000---777777---|
A|----9-9-9-9---555555---0000---777777---|
D|----9-9-9-9---555555---0000---777777---|


Pre-Verse:
e|-----------------------------------------------------------------|
B|-----------------------------------------------------------------|
G|-----------------------------------------------------------------|
D|---555---000---555---000---5555---555---000---555---000---5555---|
A|---555---000---555---000---5555---555---000---555---000---5555---|
D|---555---000---555---000---5555---555---000---555---000---5555---|


Verse: (x2)
e|---------------------------------------------------------------------|
B|---------------------------------------------------------------------|
G|---------------------------------------------------------------------|
D|-0000000000000000-4444444444444444-9999999999999999-5555555555555555-|
A|-0000000000000000-4444444444444444-9999999999999999-5555555555555555-|
D|-0000000000000000-4444444444444444-9999999999999999-5555555555555555-|
PM ................ ................ ................ ................


Chorus: (x2)
e|---------------------------------------|
B|---------------------------------------|
G|---11111111---777777---2222---999999---|
D|----9-9-9-9---555555---0000---777777---|
A|----9-9-9-9---555555---0000---777777---|
D|----9-9-9-9---555555---0000---777777---|


Pre-Verse:

e|-------------------------------------|
B|-------------------------------------|
G|-------------------------------------|
D|---555---000---555---000---5555------|
A|---555---000---555---000---5555------|
D|---555---000---555---000---5555------|

Verse: (x2)
e|---------------------------------------------------------------------|
B|---------------------------------------------------------------------|
G|---------------------------------------------------------------------|
D|-0000000000000000-4444444444444444-9999999999999999-5555555555555555-|
A|-0000000000000000-4444444444444444-9999999999999999-5555555555555555-|
D|-0000000000000000-4444444444444444-9999999999999999-5555555555555555-|
PM ................ ................ ................ ................


Chorus: (x4)
e|---------------------------------------|
B|---------------------------------------|
G|---11111111---777777---2222---999999---|
D|----9-9-9-9---555555---0000---777777---|
A|----9-9-9-9---555555---0000---777777---|
D|----9-9-9-9---555555---0000---777777---|

Bridge:
e|-----------------------------------|
B|-----------------------------------|
G|-----------------------------------|
D|-55555555555555555555555555555/777-|
A|-55555555555555555555555555555/777-|
D|-55555555555555555555555555555/777-|


e|----------------------------------------------------------------|
B|----------------------------------------------------------------|
G|----------------------------------------------------------------|
D|-----------------------------------------------------------7~---|
A|-----------------------------------------------------------7~---|
D|---444444--000000--999999--777777--444444--000000--999999--7~---|
PM   ......  ......  ......  ......  ......  ......  ......

e|-----------------------------------------------|
B|-----------------------------------------------|
G|-----------------------------------------------|
D|-----------------------------------------------|
A|-----------------------------------------------|
D|---555-000-555-000-5555-555-000-555-000-5555---|


e|----------------------------------------|
B|----------------------------------------|
G|----------------------------------------|
D|-555-000-555-000-5555-555-000-5-5555555-|
A|-555-000-555-000-5555-555-000-5-5555555-|
D|-555-000-555-000-5555-555-000-5-5555555-|
                               PM.......


Chorus: (x4)
e|---------------------------------------|
B|---------------------------------------|
G|---11111111---777777---2222---999999---|
D|----9-9-9-9---555555---0000---777777---|
A|----9-9-9-9---555555---0000---777777---|
D|----9-9-9-9---555555---0000---777777---|


Outro:
e|-----------------------------------------------------------------|
B|-----------------------------------------------------------------|
G|-----------------------------------------------------------------|
D|---555---000---555---000---5555---555---000---555---000---5555---|
A|---555---000---555---000---5555---555---000---555---000---5555---|
D|---555---000---555---000---5555---555---000---555---000---5555---|


End On:                                                        
e|--------|                                                    
B|--------|                                              
G|--------|                                            
D|---0~---|                                      
A|---0~---|                                   
D|---0~---|  

===========================================================================

Bite To Break Skin
Track Number 5

Guitar 1

Intro: (x10)
e|-----------8---------8-----8--------|
B|---5h6p5h6---5h6p5h6---5h6----------| 
G|------------------------------------|
D|------------------------------------|
A|------------------------------------|
D|------------------------------------|

Intro Cont.: (x2)
e|-------------------------------------------------------|
B|--55-66-88-55-66-88-55-88-33-55-66-33-55-66-33-66------|
G|-------------------------------------------------------|
D|-------------------------------------------------------|
A|-------------------------------------------------------|
D|-------------------------------------------------------|

e|--------88-------88-----8-------88-------88------88---|
B|--55-66----55-66-----66---55-66----55-66------66------|
G|------------------------------------------------------|
D|------------------------------------------------------|
A|------------------------------------------------------|
D|------------------------------------------------------|

Verse:
e|--------------------------------------------------------------------|
B|--------------------------------------------------------------------|
G|--------------------------------------------------------------------|
D|-0~---8-8-----0~---8-8----0-0-0-0--7-7-7-7--8-8-8-8--8-8-8-8---7-7--|
A|-0~---8-8-----0~---8-8----0-0-0-0--7-7-7-7--8-8-8-8--8-8-8-8---7-7--|
D|-0~---8-8-----0~---8-8----0-0-0-0--7-7-7-7--8-8-8-8--8-8-8-8---7-7--|
PM      . .          . .    . . . .  . . . .  . . . .  . . . .   . .


e|-------------------------------------------|
B|-------------------------------------------|
G|-------------------------------------------|
D|--0-0-0-0--7-7-7-7--8-8-8-8--8-8-8-8--7-7--|
A|--0-0-0-0--7-7-7-7--8-8-8-8--8-8-8-8--7-7--|
D|--0-0-0-0--7-7-7-7--8-8-8-8--8-8-8-8--7-7--|
PM  . . . .  . . . .  . . . .  . . . .  . .

Pre-Chorus:
e|----------------------------------------------------|
B|----------------------------------------------------|
G|----------------------------------------------------|
D|---7777777--8888888--7777777--8888888--10x10x10x----|
A|---7777777--8888888--7777777--8888888--10x10x10x----|
D|---7777777--8888888--7777777--8888888--10x10x10x----|

Chorus: (x2)
e|-------------------------------------------------------|
B|--55-66-88-55-66-88-55-88-33-55-66-33-55-66-33-66------|
G|-------------------------------------------------------|
D|-------------------------------------------------------|
A|-------------------------------------------------------|
D|-------------------------------------------------------|

e|--------88-------88-----8-------88-------88------88---|
B|--55-66----55-66-----66---55-66----55-66------66------|
G|------------------------------------------------------|
D|------------------------------------------------------|
A|------------------------------------------------------|
D|------------------------------------------------------|


Verse: (x2)
e|-------------------------------------------|
B|-------------------------------------------|
G|-------------------------------------------|
D|--0-0-0-0--7-7-7-7--8-8-8-8--8-8-8-8--7-7--|
A|--0-0-0-0--7-7-7-7--8-8-8-8--8-8-8-8--7-7--|
D|--0-0-0-0--7-7-7-7--8-8-8-8--8-8-8-8--7-7--|
PM  . . . .  . . . .  . . . .  . . . .  . .

Pre-Chorus:
e|----------------------------------------------------|
B|----------------------------------------------------|
G|----------------------------------------------------|
D|---7777777--8888888--7777777--8888888--10x10x10x----|
A|---7777777--8888888--7777777--8888888--10x10x10x----|
D|---7777777--8888888--7777777--8888888--10x10x10x----|


Chorus: (x2)
e|-------------------------------------------------------|
B|--55-66-88-55-66-88-55-88-33-55-66-33-55-66-33-66------|
G|-------------------------------------------------------|
D|-------------------------------------------------------|
A|-------------------------------------------------------|
D|-------------------------------------------------------|

e|--------88-------88-----8-------88-------88------88---|
B|--55-66----55-66-----66---55-66----55-66------66------|
G|------------------------------------------------------|
D|------------------------------------------------------|
A|------------------------------------------------------|
D|------------------------------------------------------|


Bridge: (x3)
e|--------------------------------------------------------------|
B|--------------------------------------------------------------|
G|---14141414141414--10101010101010--5555555--10101010101010----|
D|----x-x-x-x-x-x-x---x-x-x-x-x-x-x--xxxxxxx---x-x-x-x-x-x-x----|
A|---12121212121212---8-8-8-8-8-8-8--3333333---8-8-8-8-8-8-8----|
D|--------------------------------------------------------------|

Outro:(x2)
e|---------8-------10-8-------8-------10-8--------8--5-6-5-8-6-5---|
B|---5-6-5---5-6-5------5-6-5---5-6-5-------5-6-5------------------| 
G|-----------------------------------------------------------------|
D|-----------------------------------------------------------------|
A|-----------------------------------------------------------------|
D|-----------------------------------------------------------------|


//////////////////////////////////////\\\\\\\\\\\\\\\\\\\\\\\\\\\\\\\\\\\\\\

Guitar 2

Intro:
e|-------------------------------|
B|-------------------------------|
G|-------------------------------|
D|----0~---8~---7~---8~----------|
A|----0~---8~---7~---8~----------|
D|----0~---8~---7~---8~----------|

Intro Cont.: (x2)
e|---------------------------------------------------------------------|
B|---------------------------------------------------------------------|
G|---------------------------------------------------------------------|
D|---00000000-00000--88888888-88888--77777777-77777--88888888-88888----|
A|---00000000-00000--88888888-88888--77777777-77777--88888888-88888----|
D|---00000000-00000--88888888-88888--77777777-77777--88888888-88888----|

Verse:
e|--------------------------------------------------------------------|
B|--------------------------------------------------------------------|
G|--------------------------------------------------------------------|
D|-0~---8-8-----0~---8-8----0-0-0-0--7-7-7-7--8-8-8-8--8-8-8-8---7-7--|
A|-0~---8-8-----0~---8-8----0-0-0-0--7-7-7-7--8-8-8-8--8-8-8-8---7-7--|
D|-0~---8-8-----0~---8-8----0-0-0-0--7-7-7-7--8-8-8-8--8-8-8-8---7-7--|
PM      . .          . .    . . . .  . . . .  . . . .  . . . .   . .


e|-------------------------------------------|
B|-------------------------------------------|
G|-------------------------------------------|
D|--0-0-0-0--7-7-7-7--8-8-8-8--8-8-8-8--7-7--|
A|--0-0-0-0--7-7-7-7--8-8-8-8--8-8-8-8--7-7--|
D|--0-0-0-0--7-7-7-7--8-8-8-8--8-8-8-8--7-7--|
PM  . . . .  . . . .  . . . .  . . . .  . .

Pre-Chorus:
e|----------------------------------------------------|
B|----------------------------------------------------|
G|----------------------------------------------------|
D|---7777777--8888888--7777777--8888888--10x10x10x----|
A|---7777777--8888888--7777777--8888888--10x10x10x----|
D|---7777777--8888888--7777777--8888888--10x10x10x----|

Chorus: (x2)
e|---------------------------------------------------------------------|
B|---------------------------------------------------------------------|
G|---------------------------------------------------------------------|
D|---00000000-00000--88888888-88888--77777777-77777--88888888-88888----|
A|---00000000-00000--88888888-88888--77777777-77777--88888888-88888----|
D|---00000000-00000--88888888-88888--77777777-77777--88888888-88888----|


Verse: (x2)
e|-------------------------------------------|
B|-------------------------------------------|
G|-------------------------------------------|
D|--0-0-0-0--7-7-7-7--8-8-8-8--8-8-8-8--7-7--|
A|--0-0-0-0--7-7-7-7--8-8-8-8--8-8-8-8--7-7--|
D|--0-0-0-0--7-7-7-7--8-8-8-8--8-8-8-8--7-7--|
PM  . . . .  . . . .  . . . .  . . . .  . .

Pre-Chorus:
e|----------------------------------------------------|
B|----------------------------------------------------|
G|----------------------------------------------------|
D|---7777777--8888888--7777777--8888888--10x10x10x----|
A|---7777777--8888888--7777777--8888888--10x10x10x----|
D|---7777777--8888888--7777777--8888888--10x10x10x----|

Chorus: (x2)
e|---------------------------------------------------------------------|
B|---------------------------------------------------------------------|
G|---------------------------------------------------------------------|
D|---00000000-00000--88888888-88888--77777777-77777--88888888-88888----|
A|---00000000-00000--88888888-88888--77777777-77777--88888888-88888----|
D|---00000000-00000--88888888-88888--77777777-77777--88888888-88888----|


Bridge: (x4)
e|----------------------------------------------------------------|
B|----------------------------------------------------------------|
G|----------------------------------------------------------------|
D|---0000000000000--8888888888888--7777777777777--8888888888888---|
A|---0000000000000--8888888888888--7777777777777--8888888888888---|
D|---0000000000000--8888888888888--7777777777777--8888888888888---|
PM   .............  .............  .............  .............

Outro: (x2)

e|---------------------------------------------------------------------|
B|---------------------------------------------------------------------|
G|---------------------------------------------------------------------|
D|---00000000-00000--88888888-88888--77777777-77777--7-8-7-10-8-7------|
A|---00000000-00000--88888888-88888--77777777-77777--7-8-7-10-8-7------|
D|---00000000-00000--88888888-88888--77777777-77777--7-8-7-10-8-7------|

============================================================================

Rum Is For Drinking, Not For Burning
Track Number 6
Some credit to Yozoniac

Guitar One

Intro:
e|----------------------------------------------------------|
B|----------------------------------------------------------|
G|-101010--999--121212--101010\99/10-101010--999-55555-10\9-|
D|--x-x-x--xxx--xxxxxx--x-x-x--xx--x--x-x-x--xxx-xxxxx--x-x-|
A|--8-8-8--777--101010--8-8-8-\77/-8--8-8-8--777-33333--8\7-|
D|----------------------------------------------------------|

e|--------------------------------------------------------|
B|--------------------------------------------------------|
G|-101010--999--121212--101010\99/10-101010--999-55555555-|
D|--x-x-x--xxx--xxxxxx--x-x-x--xx--x--x-x-x--xxx-xxxxxxxx-|
A|--8-8-8--777--101010--8-8-8-\77/-8--8-8-8--777-33333333-|
D|--------------------------------------------------------|


Verse:
e|----------------------------------|
B|----------------------------------|
G|----------------------------------|
D|---0~-----88-----33-----22--------|
A|---0~-----88-----33-----22--------|
D|---0~-----88-----33-----22--------|

e|----------------------------------|
B|----------------------------------|
G|----------------------------------|
D|---0~-----88-----33-----22--------|
A|---0~-----88-----33-----22--------|
D|---0~-----88-----33-----22--------|
PM                 ..     ..

Pre-Chorus:
e|----------------------------------------------|
B|----------------------------------------------|
G|----------------------------------------------|
D|---0000000000--888888888-----33-----22--------|
A|---0000000000--888888888-----33-----22--------|
D|---0000000000--888888888-----33-----22--------|

e|----------------------------------------------|
B|----------------------------------------------|
G|----------------------------------------------|
D|---0000000000--888888888-----33-----22--------|
A|---0000000000--888888888-----33-----22--------|
D|---0000000000--888888888-----33-----22--------|
PM                             ..     ..


Chorus: (x8)
e|--------------88-1010-----------------|
B|----------------------1010-8h10-------|
G|---77-1010-99-------------------------|
D|--------------------------------------|
A|--------------------------------------|
D|--------------------------------------|

Verse:
e|----------------------------------|
B|----------------------------------|
G|----------------------------------|
D|---0~-----88-----33-----22--------|
A|---0~-----88-----33-----22--------|
D|---0~-----88-----33-----22--------|

e|----------------------------------|
B|----------------------------------|
G|----------------------------------|
D|---0~-----88-----33-----22--------|
A|---0~-----88-----33-----22--------|
D|---0~-----88-----33-----22--------|
PM                 ..     ..

Pre-Chorus:
e|----------------------------------------------|
B|----------------------------------------------|
G|----------------------------------------------|
D|---0000000000--888888888-----33-----22--------|
A|---0000000000--888888888-----33-----22--------|
D|---0000000000--888888888-----33-----22--------|

e|----------------------------------------------|
B|----------------------------------------------|
G|----------------------------------------------|
D|---0000000000--888888888-----33-----22--------|
A|---0000000000--888888888-----33-----22--------|
D|---0000000000--888888888-----33-----22--------|
PM                             ..     ..


Chorus: (x8)
e|--------------88-1010-----------------|
B|----------------------1010-8h10-------|
G|---77-1010-99-------------------------|
D|--------------------------------------|
A|--------------------------------------|
D|--------------------------------------|


Bridge:
e|---------------------------------------------------------|
B|---------------------------------------------------------|
G|---10-1010/9\10--10-1010/9\10--14-1414/12\14--9-99/5\9---|
D|----x--x-x-x--x---x--x-x-x--x---x--x-x--x--x--x-xx-x-x---|
A|----8--8-8/7\-8---8--8-8/7\-8--12-1212/10\12--7-77/3\7---|
D|---------------------------------------------------------|

e|---------------------------------------------------------|
B|---------------------------------------------------------|
G|---10-1010/9\10--10-1010/9\10--14-1414/12\14--9999-5555--|
D|----x--x-x-x--x---x--x-x-x--x---x--x-x--x--x--xxxx-xxxx--|
A|----8--8-8/7\-8---8--8-8/7\-8--12-1212/10\12--7777-3333--|
D|---------------------------------------------------------|

Chorus: (x8)
e|--------------88-1010-----------------|
B|----------------------1010-8h10-------|
G|---77-1010-99-------------------------|
D|--------------------------------------|
A|--------------------------------------|
D|--------------------------------------|

Outro:
e|--------------88-1010-----------------|
B|----------------------1010-8h10-------|
G|---77-1010-99-------------------------| <-------(x4)      
D|--------------------------------------|
A|--------------------------------------|
D|--------------------------------------|

e|---88-1010------1313-1212-1010-8h10---|
B|-----------1010-----------------------|
G|--------------------------------------| <-------(x4)
D|--------------------------------------|
A|--------------------------------------|
D|--------------------------------------|

e|--------------88-1010-----------------|
B|----------------------1010-8h10-------|
G|---77-1010-99-------------------------| <-------(x3)      
D|--------------------------------------|
A|--------------------------------------|
D|--------------------------------------|

e|----------------------------------------------------------|
B|---8--6--6666666666666666666666666666666666666666666666---|
G|---------7777777777777777777777777777777777777777777777---|
D|----------------------------------------------------------|
A|----------------------------------------------------------|
D|----------------------------------------------------------|

//////////////////////////////////////////\\\\\\\\\\\\\\\\\\\\\\\\\\\\\\\\\\

Guitar 2

Intro: (x2)
e|----------------------------------------------------|
B|----------------------------------------------------|
G|----------------------------------------------------|
D|---0-000000-0-000000--8-8888888-10-10101010101010---|
A|---0-000000-0-000000--8-8888888-10-10101010101010---|
D|---0-000000-0-000000--8-8888888-10-10101010101010---|

Verse:
e|----------------------------------|
B|----------------------------------|
G|----------------------------------|
D|---0~-----88-----33-----22--------|
A|---0~-----88-----33-----22--------|
D|---0~-----88-----33-----22--------|

e|----------------------------------|
B|----------------------------------|
G|----------------------------------|
D|---0~-----88-----33-----22--------|
A|---0~-----88-----33-----22--------|
D|---0~-----88-----33-----22--------|
PM                 ..     ..

Pre-Chorus:
e|----------------------------------------------------|
B|----------------------------------------------------|
G|----------------------------------------------------|
D|---0-000000-0-000000--8-8888888-10-10101010101010---|
A|---0-000000-0-000000--8-8888888-10-10101010101010---|
D|---0-000000-0-000000--8-8888888-10-10101010101010---|

e|----------------------------------------------|
B|----------------------------------------------|
G|----------------------------------------------|
D|---0000000000--888888888-----33-----22--------|
A|---0000000000--888888888-----33-----22--------|
D|---0000000000--888888888-----33-----22--------|
PM                             ..     ..

Chorus:(x2)
e|-------------------------------------------|
B|-------------------------------------------|
G|-------------------------------------------|
D|---0-000000-0-000000---8-888888-8-888888---|
A|---0-000000-0-000000---8-888888-8-888888---|
D|---0-000000-0-000000---8-888888-8-888888---|

e|---------------------------------------------------------|
B|---------------------------------------------------------|
G|---------------------------------------------------------|
D|---3-333333-3-333333---10-101010101010-10-101010101010---|
A|---3-333333-3-333333---10-101010101010-10-101010101010---|
D|---3-333333-3-333333---10-101010101010-10-101010101010---|

Verse:
e|----------------------------------|
B|----------------------------------|
G|----------------------------------|
D|---0~-----88-----33-----22--------|
A|---0~-----88-----33-----22--------|
D|---0~-----88-----33-----22--------|

e|----------------------------------|
B|----------------------------------|
G|----------------------------------|
D|---0~-----88-----33-----22--------|
A|---0~-----88-----33-----22--------|
D|---0~-----88-----33-----22--------|
PM                 ..     ..

Pre-Chorus:
e|----------------------------------------------------|
B|----------------------------------------------------|
G|----------------------------------------------------|
D|---0-000000-0-000000--8-8888888-10-10101010101010---|
A|---0-000000-0-000000--8-8888888-10-10101010101010---|
D|---0-000000-0-000000--8-8888888-10-10101010101010---|

e|----------------------------------------------|
B|----------------------------------------------|
G|----------------------------------------------|
D|---0000000000--888888888-----33-----22--------|
A|---0000000000--888888888-----33-----22--------|
D|---0000000000--888888888-----33-----22--------|
PM                             ..     ..

Chorus:(x2)
e|-------------------------------------------|
B|-------------------------------------------|
G|-------------------------------------------|
D|---0-000000-0-000000---8-888888-8-888888---|
A|---0-000000-0-000000---8-888888-8-888888---|
D|---0-000000-0-000000---8-888888-8-888888---|

e|---------------------------------------------------------|
B|---------------------------------------------------------|
G|---------------------------------------------------------|
D|---3-333333-3-333333---10-101010101010-10-101010101010---|
A|---3-333333-3-333333---10-101010101010-10-101010101010---|
D|---3-333333-3-333333---10-101010101010-10-101010101010---|

e|----------|
B|----------|
G|----------|
D|---0~~~---|  <-----Carries into the bridge...
A|---0~~~---|
D|---0~~~---|

Bridge:

Pickscrape Up The Neck

e|----------------------------------------------------|
B|----------------------------------------------------|
G|----------------------------------------------------|
D|---0-000000-0-000000--8-8888888-10-10101010101010---|
A|---0-000000-0-000000--8-8888888-10-10101010101010---|
D|---0-000000-0-000000--8-8888888-10-10101010101010---|

e|----------------------------------------------|
B|----------------------------------------------|
G|----------------------------------------------|
D|---0000000000--888888888-----33-----22--------|
A|---0000000000--888888888-----33-----22--------|
D|---0000000000--888888888-----33-----22--------|
PM                             ..     ..

Chorus:(x2)
e|-------------------------------------------|
B|-------------------------------------------|
G|-------------------------------------------|
D|---0-000000-0-000000---8-888888-8-888888---|
A|---0-000000-0-000000---8-888888-8-888888---|
D|---0-000000-0-000000---8-888888-8-888888---|

e|---------------------------------------------------------|
B|---------------------------------------------------------|
G|---------------------------------------------------------|
D|---3-333333-3-333333---10-101010101010-10-101010101010---|
A|---3-333333-3-333333---10-101010101010-10-101010101010---|
D|---3-333333-3-333333---10-101010101010-10-101010101010---|


Outro:
e|--------------88-1010-----------------|
B|----------------------1010-8h10-------|
G|---77-1010-99-------------------------| <-------(x4)      
D|--------------------------------------|
A|--------------------------------------|
D|--------------------------------------|

e|---88-1010------1313-1212-1010-8h10---|
B|-----------1010-----------------------|
G|--------------------------------------| <-------(x4)
D|--------------------------------------|
A|--------------------------------------|
D|--------------------------------------|

e|--------------88-1010-----------------|
B|----------------------1010-8h10-------|
G|---77-1010-99-------------------------| <-------(x3)      
D|--------------------------------------|
A|--------------------------------------|
D|--------------------------------------|

e|----------------------------------------------------------|
B|---8--6--6666666666666666666666666666666666666666666666---|
G|---------7777777777777777777777777777777777777777777777---|
D|----------------------------------------------------------|
A|----------------------------------------------------------|
D|----------------------------------------------------------|

============================================================================

Slow Dance
Track Number 7
Credited To sensesfail18svn

Guitar One

Intro:
e|-0~----0~----0~----0~----|
 |-0~----0~----0~----0~----|
 |-5~----0~----5~----0~----|
 |-5~----2~----5~----2~----|
 |-3~----2~----3~----2~----|
D|-------2~----------2~----|

Verse - "If you pull too hard, then the string will break..."
e|-       --------------3322--------------------------------3322-|
 |-       -3333-333-333-3333-8888-888-888-7777-3333-333-333-3333-|
 |- Pause -0000-000-000-0000-7777-777-777-7777-0000-000-000-0000-|
 |-       -------------------------------------------------------|
 |-       -------------------------------------------------------|
D|-       -------------------------------------------------------|
PM         .... ... ...      .... ... ... .... .... ... ... ....

Verse Cont.
e|--------------------------------3322----------------------------222-3322-|
 |-8888-888-888-7777-3333-333-333-3333-8888-888-888-7777-3333-333-333-3333-|
 |-7777-777-777-7777-0000-000-000-0000-7777-777-777-7777-0000-000-000-0000-|
 |-------------------------------------------------------------------------|
 |-------------------------------------------------------------------------|
D|-------------------------------------------------------------------------|
PM .... ... ... .... .... ... ...      .... ... ... .... .... ... ... ....

Chorus - "So how can we find ourselves?" (X2)
e|-101010-7-88-7-101010-7-88-7-------------------------------|
 |-8-8-8--8-88-8-8-8-8--8-88-8-555555-7777-88-555555-8888-77-|
 |-7-7-7--7-77-7-7-7-7--7-77-7-777777-7777-77-555555-5555-55-|
 |-----------------------------------------------------------|
 |-----------------------------------------------------------|
D|-----------------------------------------------------------|

Verse 2 - "Fill the glass to the brim..."
e|--------------------------------3322----------------------------222-3322-|
 |-------------------3333-333-333-3333-8888-888-888-7777-3333-333-333-3333-|
 |-5555-555-555------0000-000-000-0000-7777-777-777-7777-0000-000-000-0000-|
 |-5555-555-555------------------------------------------------------------|
 |-3333-333-333------------------------------------------------------------|
D|-------------------------------------------------------------------------|
PM .... ... ...      .... ... ... .... .... ... ... .... .... ... ... ....

Verse 2 Cont. - "Sharpening the knife..."
e|--------------------------------------------------------------|
 |--------------------------------------------------------------|
 |-55555------------1212-1414-1111-5555-------------------------|
 |-55555-------2222-x-x--x-x--x-x--5555-------2-222222222222222-|
 |-33333-------2222-1010-1212-9-9--3333-------2-222222222222222-|
D|-------------2222---------------------------2-222222222222222-|
PM                                              ...............

Repeat Chorus

Bridge - "We are one..." I'm not too sure about this. (some effect)(X4)
e|----------------------------------------------------------------|
 |----------------------------------------------------------------|
 |-0-7-9--0-7-9--7-9-0-7-9--7-9-7--0-4-5--0-4-5--4-5-0-4-5--4-5-4-|
 |----------------------------------------------------------------|
 |----------------------------------------------------------------|
D|----------------------------------------------------------------|

Play Chorus

Play this while other guitar repeats chorus.
Alternated Chorus - "Don't try too hard..."
e|-------------------------------------------------------------------------|
 |-------------------------------------------------------------------------|
 |-12121212121212121212-11111111-9999-777777-11111111-12121212121212121212-|
 |-x-x-x-x-x-x-x-x-x-x--x-x-x-x--xxxx-xxxxxx-x-x-x-x--x-x-x-x-x-x-x-x-x-x--|
 |-10101010101010101010-9-9-9-9--7777-555555-9-9-9-9--10101010101010101010-|
D|-------------------------------------------------------------------------|

Alternate Chorus Cont.
e|-------------------------------------------------------------------------|
 |-------------------------------------------------------------------------|
 |-14141414-12121212121212121212-1616161616161616-1414-1717-16161616161616-|
 |-x-x-x-x--x-x-x-x-x-x-x-x-x-x--x-x-x-x-x-x-x-x--x-x--x-x--x-x-x-x-x-x-x--|
 |-12121212-10101010101010101010-1414141414141414-1212-1515-14141414141414-|
D|-------------------------------------------------------------------------|


Alternate Chorus Cont.
e|--------------------------------------------------------------|
 |--------------------------------------------------------------|
 |-12121212-1919191919191919-17171717-1616161616161616-14141414-|
 |-x-x-x-x--x-x-x-x-x-x-x-x--x-x-x-x--x-x-x-x-x-x-x-x--x-x-x-x--|
 |-10101010-1717171717171717-15151515-1414141414141414-12121212-|
D|--------------------------------------------------------------|

Ending
e|----------------|
 |----------------|
 |-444-4-4-444-4--|
 |-222-2-2-222-2--|
 |-222-2-2-222-2--|
D|-222-2-2-222-2\-|

///////////////////////////////////////////\\\\\\\\\\\\\\\\\\\\\\\\\\\\\\\\\

Guitar Two
Verse - "If you pull too hard, thent he string will break..." (X4)
e|---------------------------------------|
 |---------------------------------------|
 |-5555-555-555-5555---------------------|
 |-5555-555-555-5555-2222-222-222-2222---|
 |-3333-333-333-3333-2222-222-222-2222---|
D|-------------------2222-222-222-2222---|
PM .... ... ... .... .... ... ... ....

Chorus - "So how can we find ourselves?..."
e|-------------------------------------------------------------------------|
 |-------------------------------------------------------------------------|
 |----------------------------------5555-55555-55555-----------------------|
 |-5555555555-0000000000-2222222222-5555-55555-55555-5555555555-0000000000-|
 |-5555555555-0000000000-2222222222-3333-33333-33333-5555555555-0000000000-|
D|-5555555555-0000000000-2222222222------------------5555555555-0000000000-|
PM                                                                    ....

Chorus Cont.
e|-----------------------------|
 |-----------------------------|
 |------------5555-55555-55555-|
 |-2222222222-5555-55555-55555-|
 |-2222222222-3333-33333-33333-|
D|-2222222222------------------|

Verse 2 - "Fill the glass to the brim..."
e|-       -------------------------------------------------------|
 |-       -------------------------------------------------------|
 |- Pause -------------------5555-555-555-5555-------------------|
 |-       -2222-222-222-2222-5555-555-555-5555-2222-222-222-2222-|
 |-       -2222-222-222-2222-3333-333-333-3333-2222-222-222-2222-|
D|-       -2222-222-222-2222-------------------2222-222-222-2222-|

Verse 2 Cont. - "Sharpening the knife, and it will be so blunt"
e|---------------------------------------------------------------------|
 |---------------------------------------------------------------------|
 |-55555-<5>--<9>--<7>--<12>-------------5555-<5>--<9>--<7>--<12>------|
 |-55555-----harmonics-------2222--------5555---------------------2-2>-|
 |-33333---------------------2222--------3333---------------------2-2>-|
D|---------------------------2222---------------------------------2-2>-|
PM                                                                  .

Repeat Chorus

Bridge - "We are one..."
e|-------------------------------------------|
 |-------------------------------------------|
 |-------------------------------------------|
 |-22-222-2-222-222-0-2-55-555-5-555-555-5-0-|(X2)
 |-22-222-2-222-222-0-2-55-555-5-555-555-5-0-|
D|-22-222-2-222-222-0-2-55-555-5-555-555-5-0-|
PM .. ... . ... ... . . .. ... . ... ... . .

Bridge Cont. - (Played in triplets)
e|-----------------------------------------|
 |-----------------------------------------|
 |-----------------------------------------|
 |-222-222--222-222--222-222--222-222-5555-|
 |-222-222--222-222--222-222--222-222-5555-|
D|-222-222--222-222--222-222--222-222-5555-|
PM ... ...  ... ...  ... ...  ... ... ....

Bridge Cont. - (Played in triplets)
e|---------------------------------------|
 |---------------------------------------|
 |---------------------------------------|
 |-222-222--222-222--222-222--222-222-5~-|
 |-222-222--222-222--222-222--222-222-5~-|
D|-222-222--222-222--222-222--222-222-5~-|
PM ... ...  ... ...  ... ...  ... ... .

Repeat Chorus (X2)

Ending
e|----------------|
 |----------------|
 |-------------4--|
 |-222-2-2-222-2--|
 |-222-2-2-222-2--|
D|-222-2-2-222-2\-|


===========================================================================

Choke On This
Track Number 8

Guitar 1 - Dave

Intro:
e|---------------------------------------------------------------|
B|---------------------------------------------------------------|
G|-------------------------------6666666666666--555555555555-----|
D|--8888888888--666--4444444444--xxxxxxxxxxxxx--xxxxxxxxxxxx-----|
A|--8888888888--666--4444444444--4444444444444--333333333333-----|
D|--8888888888--666--4444444444----------------------------------|

e|---------------------------------------|
B|---------------------------------------|
G|--10101010101010101010-----------------|
D|--8-8-8-8-8-8-8-8-8-8-666-4444444444---|
A|--8-8-8-8-8-8-8-8-8-8-666-4444444444---|
D|--8-8-8-8-8-8-8-8-8-8-666-4444444444---|

Small Break Here...

e|-------------------------------------------------------------|
B|-------------------------------------------------------------|
G|-6666--5555--6666--5555--6666--5555--6666--5555--------------|
D|-xxxx--xxxx--xxxx--xxxx--xxxx--xxxx--xxxx--xxxx--------------|
A|-4444--3333--4444--3333--4444--3333--4444--3333--------------|
D|-------------------------------------------------------------|

Pick Scrape

Verse:
e|-------------------------------------------------------------------------|
B|-------------------------------------------------------------------------|
G|---------------------------------------------------6---------------------|
D|---8888888888--666--4444444444--3333333333--444444-4-444444--------------|
A|---8888888888--666--4444444444--3333333333--444444-4-444444--------------|
D|---8888888888--666--4444444444--3333333333--444444-4-444444--------------|
PM   ..........  ...  ..........  ..........  ......   ......

(Note: Notice the no palm mute on the e|--- note)
                                      B|---
                                      G|-6-
                                      D|-4-
                                      A|-4-
                                      D|-4-

Verse Cont.:
e|-------------------------------------------------------------------------|
B|-------------------------------------------------------------------------|
G|-------------------------------------------------------------------------|
D|---8888888888--666--4444444444--3333333333--444444444444-----------------|
A|---8888888888--666--4444444444--3333333333--444444444444-----------------|
D|---8888888888--666--4444444444--3333333333--444444444444-----------------|
PM   ..........  ...  ..........  ..........  ........
(No PM last four notes.)


Pre-Chorus:
e|--------------------------------------------|
B|--------------------------------------------|
G|--------------------------------------------|
D|-33333333--88888888-66666/8-44444444444-----|
A|-33333333--88888888-66666/8-44444444444-----|
D|-33333333--88888888-66666/8-44444444444-----|

e|--------------------------------------------|
B|--------------------------------------------|
G|--------------------------------------------|
D|-33333333--88888888-66666/8-444444-666666---|
A|-33333333--88888888-66666/8-444444-666666---|
D|-33333333--88888888-66666/8-444444-666666---|


Chorus:
e|---------------------------------------------------------------|
B|---------------------------------------------------------------|
G|-------------------------------6666666666666--555555555555-----|
D|--8888888888--666--4444444444--xxxxxxxxxxxxx--xxxxxxxxxxxx-----|
A|--8888888888--666--4444444444--4444444444444--333333333333-----|
D|--8888888888--666--4444444444----------------------------------|

e|---------------------------------------|
B|---------------------------------------|
G|--10101010101010101010-----------------|
D|--8-8-8-8-8-8-8-8-8-8-666-4444444444---|
A|--8-8-8-8-8-8-8-8-8-8-666-4444444444---|
D|--8-8-8-8-8-8-8-8-8-8-666-4444444444---|

e|-------------------------------------------------------------|
B|-------------------------------------------------------------|
G|-6666--5555--6666--5555--6666--5555--6666--5555--------------|
D|-xxxx--xxxx--xxxx--xxxx--xxxx--xxxx--xxxx--xxxx--------------|
A|-4444--3333--4444--3333--4444--3333--4444--3333--------------|
D|-------------------------------------------------------------|

Pick Scrape


Verse:
e|-------------------------------------------------------------------------|
B|-------------------------------------------------------------------------|
G|---------------------------------------------------6---------------------|
D|---8888888888--666--4444444444--3333333333--444444-4-444444--------------|
A|---8888888888--666--4444444444--3333333333--444444-4-444444--------------|
D|---8888888888--666--4444444444--3333333333--444444-4-444444--------------|
PM   ..........  ...  ..........  ..........  ......   ......

Verse Cont.:
e|-------------------------------------------------------------------------|
B|-------------------------------------------------------------------------|
G|-------------------------------------------------------------------------|
D|---8888888888--666--4444444444--3333333333--444444444444-----------------|
A|---8888888888--666--4444444444--3333333333--444444444444-----------------|
D|---8888888888--666--4444444444--3333333333--444444444444-----------------|
PM   ..........  ...  ..........  ..........  ........
(No PM last four notes.)

Pre-Chorus:
e|--------------------------------------------|
B|--------------------------------------------|
G|--------------------------------------------|
D|-33333333--88888888-66666/8-44444444444-----|
A|-33333333--88888888-66666/8-44444444444-----|
D|-33333333--88888888-66666/8-44444444444-----|

e|--------------------------------------------|
B|--------------------------------------------|
G|--------------------------------------------|
D|-33333333--88888888-66666/8-444444-666666---|
A|-33333333--88888888-66666/8-444444-666666---|
D|-33333333--88888888-66666/8-444444-666666---|

Chorus:
e|---------------------------------------------------------------|
B|---------------------------------------------------------------|
G|-------------------------------6666666666666--555555555555-----|
D|--8888888888--666--4444444444--xxxxxxxxxxxxx--xxxxxxxxxxxx-----|
A|--8888888888--666--4444444444--4444444444444--333333333333-----|
D|--8888888888--666--4444444444----------------------------------|

e|---------------------------------------|
B|---------------------------------------|
G|--10101010101010101010-----------------|
D|--8-8-8-8-8-8-8-8-8-8-666-4444444444---|
A|--8-8-8-8-8-8-8-8-8-8-666-4444444444---|
D|--8-8-8-8-8-8-8-8-8-8-666-4444444444---|

e|-------------------------------------------------------------|
B|-------------------------------------------------------------|
G|-6666--5555--6666--5555--6666--5555--6666--5555--------------|
D|-xxxx--xxxx--xxxx--xxxx--xxxx--xxxx--xxxx--xxxx--------------|
A|-4444--3333--4444--3333--4444--3333--4444--3333--------------|
D|-------------------------------------------------------------|

Bridge:
e|-----------------------------------|
B|-----------------------------------|
G|--6~----6~----3~-------------------|
D|--6~----6~----3~----3~----4~--6~---|
A|--4~----3~----1~----3~----4~--6~---|
D|--------------------3~----4~--6~---|

Bridge Cont.:
e|-----------------------------------|
B|-----------------------------------|
G|--66----66----33-------------------|
D|--66----66----33----33----44--66---|
A|--44----33----11----33----44--66---|
D|--------------------33----44--66---|

Bridge Cont.:
e|-----------------------------------|
B|-----------------------------------|
G|--66----66----33-------------------|
D|--66----66----33----33----44--6~---|
A|--44----33----11----33----44--6~---|
D|--------------------33----44--6~---|

Chorus:
e|---------------------------------------------------------------|
B|---------------------------------------------------------------|
G|-------------------------------6666666666666--555555555555-----|
D|--8888888888--666--4444444444--xxxxxxxxxxxxx--xxxxxxxxxxxx-----|
A|--8888888888--666--4444444444--4444444444444--333333333333-----|
D|--8888888888--666--4444444444----------------------------------|

e|---------------------------------------|
B|---------------------------------------|
G|--10101010101010101010-----------------|
D|--8-8-8-8-8-8-8-8-8-8-666-4444444444---|
A|--8-8-8-8-8-8-8-8-8-8-666-4444444444---|
D|--8-8-8-8-8-8-8-8-8-8-666-4444444444---|

e|-------------------------------------------------------------|
B|-------------------------------------------------------------|
G|-6666--5555--6666--5555--6666--5555--6666--5555--------------|
D|-xxxx--xxxx--xxxx--xxxx--xxxx--xxxx--xxxx--xxxx--------------|
A|-4444--3333--4444--3333--4444--3333--4444--3333--------------|
D|-------------------------------------------------------------|

End On:
e|-----------|
B|-----------|
G|----6~~----|
D|----x~~----|
A|----4~~----|
D|-----------|


/////////////////////////////////////\\\\\\\\\\\\\\\\\\\\\\\\\\\\\\\\\\\\\\

Guitar 2 - Garrett

Intro:
e|---------------------------------------------------------------|
B|---------------------------------------------------------------|
G|-------------------------------6666666666666--555555555555-----|
D|--8888888888--666--4444444444--xxxxxxxxxxxxx--xxxxxxxxxxxx-----|
A|--8888888888--666--4444444444--4444444444444--333333333333-----|
D|--8888888888--666--4444444444----------------------------------|

e|----------------------------------------|
B|----99999999-77777777-666666-444444-----|
G|----66666666-66666666-666666-444444-----|
D|----------------------------------------|
A|----------------------------------------|
D|----------------------------------------|

e|-------------------------|
B|---99999999-6666-7777----|     <---- Played by its self
G|---66666666-6666-6666----|           right before 
D|-------------------------|           guitar 1's pick scrape.
A|-------------------------|
D|-------------------------|

Verse:
e|-------------------------------------------------------------------------|
B|-------------------------------------------------------------------------|
G|---------------------------------------------------6---------------------|
D|---8888888888--666--4444444444--3333333333--444444-4-444444--------------|
A|---8888888888--666--4444444444--3333333333--444444-4-444444--------------|
D|---8888888888--666--4444444444--3333333333--444444-4-444444--------------|
PM   ..........  ...  ..........  ..........  ......   ......

(Note: Notice the no palm mute on the e|--- note)
                                      B|---
                                      G|-6-
                                      D|-4-
                                      A|-4-
                                      D|-4-

Verse Cont.:
e|-------------------------------------------------------------------------|
B|-------------------------------------------------------------------------|
G|-------------------------------------------------------------------------|
D|---8888888888--666--4444444444--3333333333--444444444444-----------------|
A|---8888888888--666--4444444444--3333333333--444444444444-----------------|
D|---8888888888--666--4444444444--3333333333--444444444444-----------------|
PM   ..........  ...  ..........  ..........  ........
(No PM last four notes.)

Pre-Chorus:
e|--------------------------------------------|
B|--------------------------------------------|
G|--------------------------------------------|
D|-33333333--88888888-66666/8-44444444444-----|
A|-33333333--88888888-66666/8-44444444444-----|
D|-33333333--88888888-66666/8-44444444444-----|

e|--------------------------------------------|
B|--------------------------------------------|
G|--------------------------------------------|
D|-33333333--88888888-66666/8-444444-666666---|
A|-33333333--88888888-66666/8-444444-666666---|
D|-33333333--88888888-66666/8-444444-666666---|

e|---------------------------------------------------|
B|---------------------------------------------------|
G|-1010101010101010--88888/10--66666666--888888------|
D|-x-x-x-x-x-x-x-x---xxxxx/x---xxxxxxxx--xxxxxx------|
A|-8-8-8-8-8-8-8-8---66666/8---44444444--666666------|
D|---------------------------------------------------|

Chorus:
e|-------------------------------------------------------------------|
B|-77-66----77-66----4h6-77-66----77-66----4h6-77-66----77-66----4h6-|
G|-------66-------66-----------66-------66-----------66-------66-----|
D|-------------------------------------------------------------------|
A|-------------------------------------------------------------------|
D|-------------------------------------------------------------------|

e|---------------------------------------------------------|
B|-77-66----77-66----4h6-99999999-77777777-666666-444444---|
G|-------66-------66-----66666666-66666666-666666-666666---|
D|---------------------------------------------------------|
A|---------------------------------------------------------|
D|---------------------------------------------------------|

e|-------------------------|
B|---99999999-6666-7777----|     <---- Played by its self
G|---66666666-6666-6666----|           right before 
D|-------------------------|           guitar 1's pick scrape.
A|-------------------------|
D|-------------------------|


Verse:
e|-------------------------------------------------------------------------|
B|-------------------------------------------------------------------------|
G|---------------------------------------------------6---------------------|
D|---8888888888--666--4444444444--3333333333--444444-4-444444--------------|
A|---8888888888--666--4444444444--3333333333--444444-4-444444--------------|
D|---8888888888--666--4444444444--3333333333--444444-4-444444--------------|
PM   ..........  ...  ..........  ..........  ......   ......

Verse Cont.:
e|-------------------------------------------------------------------------|
B|-------------------------------------------------------------------------|
G|-------------------------------------------------------------------------|
D|---8888888888--666--4444444444--3333333333--444444444444-----------------|
A|---8888888888--666--4444444444--3333333333--444444444444-----------------|
D|---8888888888--666--4444444444--3333333333--444444444444-----------------|
PM   ..........  ...  ..........  ..........  ........
(No PM last four notes.)


Pre-Chorus:
e|--------------------------------------------|
B|--------------------------------------------|
G|--------------------------------------------|
D|-33333333--88888888-66666/8-44444444444-----|
A|-33333333--88888888-66666/8-44444444444-----|
D|-33333333--88888888-66666/8-44444444444-----|

e|--------------------------------------------|
B|--------------------------------------------|
G|--------------------------------------------|
D|-33333333--88888888-66666/8-444444-666666---|
A|-33333333--88888888-66666/8-444444-666666---|
D|-33333333--88888888-66666/8-444444-666666---|

e|---------------------------------------------------|
B|---------------------------------------------------|
G|-1010101010101010--88888/10--66666666--888888------|
D|-x-x-x-x-x-x-x-x---xxxxx/x---xxxxxxxx--xxxxxx------|
A|-8-8-8-8-8-8-8-8---66666/8---44444444--666666------|
D|---------------------------------------------------|


Chorus:
e|-------------------------------------------------------------------|
B|-77-66----77-66----4h6-77-66----77-66----4h6-77-66----77-66----4h6-|
G|-------66-------66-----------66-------66-----------66-------66-----|
D|-------------------------------------------------------------------|
A|-------------------------------------------------------------------|
D|-------------------------------------------------------------------|

e|---------------------------------------------------------|
B|-77-66----77-66----4h6-99999999-77777777-666666-444444---|
G|-------66-------66-----66666666-66666666-666666-666666---|
D|---------------------------------------------------------|
A|---------------------------------------------------------|
D|---------------------------------------------------------|

Bridge:
e|----------------------------------------------------------------|
B|----------------------------------------------------------------|
G|--6666666666666666-6666666666666666-3333333333333333------------|
D|--6666666666666666-6666666666666666-3333333333333333-33333333---|
A|--4444444444444444-3333333333333333-1111111111111111-33333333---|
D|-----------------------------------------------------33333333---|
PM  ................ ................ ................ ........

Bridge Cont.:
e|-------------------------|
B|-------------------------|
G|-------------------------|
D|---44444444--66666666----|
A|---44444444--66666666----|
D|---44444444--66666666----|
PM   ........  ........

Bridge Cont.:
e|----------------------------------------------------------------|    
B|-----------------------6-----7------------------------6-----7---|    
G|-6---5h6-6---5---8---5-----5----6---5h6-6---5---8---5-----5-----|
D|---6-------6---6---6-----6--------6-------6---6---6-----6-------|    
A|----------------------------------------------------------------|    
D|----------------------------------------------------------------|    

e|------------------------------------------------------------------|    
B|-----------------------6-----7------------------------6-----------|
G|-6---5h6-6---5---8---5-----5----6---5h6-6---5---8---5-----5-6-----|
D|---6-------6---6---6-----6--------6-------6---6---6-----6-----6---|
A|------------------------------------------------------------------|    
D|------------------------------------------------------------------|    

e|---------------------------------------------------------------|
B|-----------------------777-88------------------------777-88----|
G|-6---5h6-6---5---8---5---------6---5h6-6---5---8---5-----------|
D|---6-------6---6---6-------------6-------6---6---6-------------|
A|---------------------------------------------------------------|
D|---------------------------------------------------------------|

e|---------------------------------------------------------------|
B|-----------------------777-88------------------------777-88----|
G|-6---5h6-6---5---8---5---------6---5h6-6---5---8---5-----------|
D|---6-------6---6---6-------------6-------6---6---6-------------|
A|---------------------------------------------------------------|
D|---------------------------------------------------------------|

Chorus:
e|-------------------------------------------------------------------|
B|-77-66----77-66----4h6-77-66----77-66----4h6-77-66----77-66----4h6-|
G|-------66-------66-----------66-------66-----------66-------66-----|
D|-------------------------------------------------------------------|
A|-------------------------------------------------------------------|
D|-------------------------------------------------------------------|

e|---------------------------------------------------------|
B|-77-66----77-66----4h6-99999999-77777777-666666-444444---|
G|-------66-------66-----66666666-66666666-666666-666666---|
D|---------------------------------------------------------|
A|---------------------------------------------------------|
D|---------------------------------------------------------|

End On:
e|-------------|
B|-------------|
G|-----6~~-----|
D|-----6~~-----|
A|-----4~~-----|
D|-------------|

===========================================================================

NJ Falls Into The Atlantic
Track Number 9
Credited to thriceanator

Guitar 1-Intro..."It's, 4 AM.."
e|----------------------------------------------------------------------------|
-|----------------------------------------------------------------------------|
-|----------------------------------------------------------------------------|
-|444444444444444x-0000000000000000x-7777777777777777x-7777777777777777x------|
-|444444444444444x-0000000000000000x-7777777777777777x-7777777777777777x------|
d|444444444444444x-0000000000000000x-7777777777777777x-6666666666666666x------|
pm...............  ................  ................  ................

-|----------------------------------------------------------------------------|
-|----------------------------------------------------------------------------|
-|----------------------------------------------------------------------------|
-|444444444444444x-0000000000000000x-7777777777777777x-7~---------------------|
-|444444444444444x-0000000000000000x-7777777777777777x-7~---------------------|
-|444444444444444x-0000000000000000x-7777777777777777x-6~---------------------|
pm...............  ................  ................

Guitar 1-Chorus (x2)
-|----------------------------------------------------------------------------|
-|----------------------------------------------------------------------------|
-|----------------------------------------------------------------------------|
-|444444444444444--0000000000000000--7777777777777777--7777777777777777-------|
-|444444444444444--0000000000000000--7777777777777777--7777777777777777-------|
-|444444444444444--0000000000000000--7777777777777777--6666666666666666-------|


Guitar 2-Chorus repeat (8x)
-|----------------------------------------------------------------------------|
-|----------------------------------------------------------------------------|
-|---10-10p7---7-----7-8p7---7------------------------------------------------|
-|88---------8-----8-------8--------------------------------------------------|
-|----------------------------------------------------------------------------|
-|----------------------------------------------------------------------------|

*Play this (only) on the 4th time for Guitar 2 instead of above, plays 4x's
-|----------------------------------------------------------------------------|
-|----------------------------------------------------------------------------|
-|8p7---7---------------------------------------------------------------------|
-|----8-----------------------------------------------------------------------|
-|----------------------------------------------------------------------------|
-|----------------------------------------------------------------------------|


Guitar 1-Verse *Let Chords Linger (2x) ..."So speak...your...mind"
-|----------------------------------------------------------------------------|
-|----------------------------------------------------------------------------|
-|----------------------------------------------------------------------------|
-|4~---------------0~---------------4~---------------0~-----------------------|
-|4~---------------0~---------------4~---------------0~-----------------------|
-|4~---------------0~---------------4~---------------0~-----------------------|

Guitar 2-Verse (2x)
-|---------------------------------------------------0~-----------------------|
-|----------------------------------10----9----7-----5~-----------------------|
-|--9-7~-------------9-7~------------9-99---99---9---7~---9-7~----------------|
-|8----------------8------------------------------------8---------------------|
-|----------------------------------------------------------------------------|
-|----------------------------------------------------------------------------|

Guitar 1- Pre Chorus.."Comming straight from of the wires..."
-|----------------------------------------------------------------------------|
-|----------------------------------------------------------------------------|
-|----------------------------------------------------------------------------|
-|44x--4x-4444x--4x-0000x--0x-0000x-0x-4444x-4x-4444x-4x----------------------|
-|44x--4x-4444x--4x-0000x--0x-0000x-0x-4444x-4x-4444x-4x----------------------|
-|44x--4x-4444x--4x-0000x--0x-0000x-0x-4444x-4x-4444x-4x----------------------|
pm..   .  ....   .  ....   .  ....  .  ....  .  ....  .

------------------------------------------------------------------------------|
------------------------------------------------------------------------------|
------------------------------------------------------------------------------|
-0000x-0x-0x-0-000000x--------------------------------------------------------|
-0000x-0x-0x-0-000000x--------------------------------------------------------|
-0000x-0x-0x-0-000000x--------------------------------------------------------|
 ....  .  .    ......
Guitar 2- Pre Chorus (7x)only played 7 times the 8th is below
-|----------------------------------------------------------------------------|
-|----------------------------------------------------------------------------|
-|---7---10p7--7--------------------------------------------------------------|
-|88x-8x-----8x---------------------------------------------------------------|
-|----------------------------------------------------------------------------|
-|----------------------------------------------------------------------------|
pm..  .      .

Do this on the 8th time after u play the above (7x)
-|----------------------------------------------------------------------------|
-|----------------------------------------------------------------------------|
-|----------------------------------------------------------------------------|
-|0-000000x-------------------------------------------------------------------|
-|0-000000x-------------------------------------------------------------------|
-|0-000000x-------------------------------------------------------------------|
pm  ......

Guitar 1- Chorus 2 (2x)
-|----------------------------------------------------------------------------|
-|----------------------------------------------------------------------------|
-|----------------------------------------------------------------------------|
-|4444444444444444-00x-00000000000000-7777777777777777-7777777777777777-------|
-|4444444444444444-00x-00000000000000-7777777777777777-7777777777777777-------|
-|4444444444444444-00x-00000000000000-7777777777777777-6666666666666666-------|
pm                 ..

Guitar 2-Chorus 2 repeat (8x)
-|-----------------------------------------------------------------------------|
-|-----------------------------------------------------------------------------|
-|---10-10p7---7-----7-8p7---7-------------------------------------------------|
-|88--------8----8------8------------------------------------------------------|
-|-----------------------------------------------------------------------------|
-|-----------------------------------------------------------------------------|


*Play this (only) on the 4th time for Guitar 2 instead of above, plays 4x's
-|----------------------------------------------------------------------------|
-|----------------------------------------------------------------------------|
-|8p7---7---------------------------------------------------------------------|
-|----8-----------------------------------------------------------------------|
-|----------------------------------------------------------------------------|
-|----------------------------------------------------------------------------|

Guitar 1-Verse 2 *Let Chords Linger (1x).."this falls on.."
-|----------------------------------------------------------------------------|
-|----------------------------------------------------------------------------|
-|----------------------------------------------------------------------------|
-|4~---------------0~---------------4~---------------0~-----------------------|
-|4~---------------0~---------------4~---------------0~-----------------------|
-|4~---------------0~---------------4~---------------0~-----------------------|

Guitar 2-Verse 2 (1x)
-|---------------------------------------------------0~-----------------------|
-|----------------------------------10----9----7-----5~-----------------------|
-|--9-7~-------------9-7~------------9-99---99---9---7~---9-7~----------------|
-|8----------------8------------------------------------8---------------------|
-|----------------------------------------------------------------------------|
-|----------------------------------------------------------------------------|

Guitar 1- Pre Chorus2..."Watching romance from afar.."
-|----------------------------------------------------------------------------|
-|----------------------------------------------------------------------------|
-|----------------------------------------------------------------------------|
-|44x--4x-4444x--4x-0000x--0x-0000x-0x-4444x-4x-4444x-4x----------------------|
-|44x--4x-4444x--4x-0000x--0x-0000x-0x-4444x-4x-4444x-4x----------------------|
-|44x--4x-4444x--4x-0000x--0x-0000x-0x-4444x-4x-4444x-4x----------------------|
pm..   .  ....   .  ....   .  ....  .  ....  .  ....  .

------------------------------------------------------------------------------|
------------------------------------------------------------------------------|
------------------------------------------------------------------------------|
-0000x-0x-0x-0-000000x--------------------------------------------------------|
-0000x-0x-0x-0-000000x--------------------------------------------------------|
-0000x-0x-0x-0-000000x--------------------------------------------------------|
 ....  .  .  . ......

Guitar 2- Pre Chorus2 (7x)only played 7 times the 8th is below
-|----------------------------------------------------------------------------|
-|----------------------------------------------------------------------------|
-|---7---10p7--7--------------------------------------------------------------|
-|88x-8x-----8x---------------------------------------------------------------|
-|----------------------------------------------------------------------------|
-|----------------------------------------------------------------------------|
pm..  .      .

Do this on the 8th time after u play the above (7x)
-|----------------------------------------------------------------------------|
-|----------------------------------------------------------------------------|
-|----------------------------------------------------------------------------|
-|0-000000x-------------------------------------------------------------------|
-|0-000000x-------------------------------------------------------------------|
-|0-000000x-------------------------------------------------------------------|
pm  ......

Guitar 1- Chorus 3 (2x)
-|----------------------------------------------------------------------------|
-|----------------------------------------------------------------------------|
-|----------------------------------------------------------------------------|
-|4444444444444444-00x-00000000000000-7777777777777777-7777777777777777-------|
-|4444444444444444-00x-00000000000000-7777777777777777-7777777777777777-------|
-|4444444444444444-00x-00000000000000-7777777777777777-6666666666666666-------|
pm                 ..

Guitar 2-Chorus 3 repeat (8x)
-|----------------------------------------------------------------------------|
-|----------------------------------------------------------------------------|
-|---10-10p7---7-----7-8p7---7------------------------------------------------|
-|88---------8-----8-------8--------------------------------------------------|
-|----------------------------------------------------------------------------|
-|----------------------------------------------------------------------------|

*Play this (only) on the 4th time for Guitar 2 instead of above, plays 4x's
-|----------------------------------------------------------------------------|
-|----------------------------------------------------------------------------|
-|8p7---7---------------------------------------------------------------------|
-|----8-----------------------------------------------------------------------|
-|----------------------------------------------------------------------------|
-|----------------------------------------------------------------------------|


Guitar 1-Bridge *Let Chords Linger (2x)..."An angel on his two knees.."
-|----------------------------------------------------------------------------|
-|----------------------------------------------------------------------------|
-|----------------------------------------------------------------------------|
-|4~---------------0~---------------4~---------------0~-----------------------|
-|4~---------------0~---------------4~---------------0~-----------------------|
-|4~---------------0~---------------4~---------------0~-----------------------|

Guitar 2-Bridge (4x) Careful with this part, doesnt keep playing, listen for timing..
-|---------------------|------------------------------------------------------|
-|---------------------|------------------------------------------------------|
-|9--11--9--7---6-7-6--|-5-7--5-4---------------------------------------------|
-|x--x---x--x---x-x-x--|-x-x--x-x---------------------------------------------|
-|7/-9\--7\-5\--4/5\4--|-7/9--7-6---------------------------------------------|
-|---------------------|------------------------------------------------------|
                        -Play this directly after u play the first one 4x, play this 1x


Guitar 1-Bridge part 2  (2x).."Its plain to see, the wind beneath the trees..."
-|----------------------------------------------------------------------------|
-|----------------------------------------------------------------------------|
-|----------------------------------------------------------------------------|
-|4~---------------0~---------------7~---------------7~-----------------------|
-|4~---------------0~---------------7~---------------7~-----------------------|
-|4~---------------0~---------------7~---------------6~-----------------------|


Guitar 2-Played through Bridge part 2 and 3 (4x)
-|---------------------|------------------------------------------------------|
-|---------------------|------------------------------------------------------|
-|9--11--9--7---6-7-6--|-777777-555555-4444-----------------------------------|
-|x--x---x--x---x-x-x--|-xxxxxx-xxxxxx-xxxx-----------------------------------|
-|7/-9\--7\-5\--4/5\4--|-999999-777777-6666-----------------------------------|
-|---------------------|------------------------------------------------------|


Guitar 1-Bridge part 3  (2x).."But in this place, im choked with my own air.."
-|----------------------------------------------------------------------------|
-|----------------------------------------------------------------------------|
-|----------------------------------------------------------------------------|
-|444444444444444--0000000000000000--7777777777777777--7777777777777777-------|
-|444444444444444--0000000000000000--7777777777777777--7777777777777777-------|
-|444444444444444--0000000000000000--7777777777777777--6666666666666666-------|

Guitar 1- Chorus 3 (2x)
-|----------------------------------------------------------------------------|
-|----------------------------------------------------------------------------|
-|----------------------------------------------------------------------------|
-|4444444444444444-00x-00000000000000-7777777777777777-7777777777777777---0~--|
-|4444444444444444-00x-00000000000000-7777777777777777-7777777777777777---0~--|
-|4444444444444444-00x-00000000000000-7777777777777777-6666666666666666---0~--|
pm                 ..
Guitar 2-Chorus 3 repeat (8x)
-|----------------------------------------------------------------------------|
-|----------------------------------------------------------------------------|
-|---10-10p7---7-----7-8p7---7------------------------------------------------|
-|88---------8-----8-------8--------------------------------------------------|
-|----------------------------------------------------------------------------|
-|----------------------------------------------------------------------------|

*Play this (only) on the 4th time for Guitar 2 instead of above, plays 4x's
-|----------------------------------------------------------------------------|
-|----------------------------------------------------------------------------|
-|8p7---7---------------------------------------------------------------------|
-|----8-----------------------------------------------------------------------|
-|----------------------------------------------------------------------------|
-|----------------------------------------------------------------------------|

===========================================================================

Let It Enfold You
Track Number 10
Credited to pwrchrdprincess
Intro (Guitar 1):
|--------------------------------------------------------------|
|----7---8--7---5--7---8--7---7--------------------------------|
|--7---7------7------7------7--------6h7p67-6h7p67-6h7p677777--|
|--------------------------------x3----------------------------|
|--------------------------------------------------------------|
|--------------------------------------------------------------|

Intro (Guitar 2):
|---------------------------------------------------------------------------|
|---------------------------------------------------------------------------|
|---------------------------------------------------------------------------|
|--0000000000000000-4444444444444444-5555555555555555-7777777777777777------|
|--0000000000000000-4444444444444444-5555555555555555-7777777777777777------|
|--0000000000000000-4444444444444444-5555555555555555-7777777777777777------|

Verse (Guitar 2):
|---------------------------------------------------------------------------|
|---------------------------------------------------------------------------|
|---------------------------------------------------------------------------|
|--00-0000-00-0000-00-0000-00-0000-44-4444-44-4444-44-4444------------------|
|--00-0000-00-0000-00-0000-00-0000-44-4444-44-4444-44-4444------------------|
|--00-0000-00-0000-00-0000-00-0000-44-4444-44-4444-44-4444------------------|
      ****    ****    ****    ****    ****    ****    ****
|---------------------------------------------------------------------------|
|---------------------------------------------------------------------------|
|---------------------------------------------------------------------------|
|--55-5555-55-5555-55-5555-55-5555-77-7777-77-7777-77-7777------------------|
|--55-5555-55-5555-55-5555-55-5555-77-7777-77-7777-77-7777------------------|
|--55-5555-55-5555-55-5555-55-5555-77-7777-77-7777-77-7777------------------|
      ****    ****    ****    ****    ****    ****    ****

Verse (Guitar 1) after Guitar 2 plays Verse once:
|---------------------------------------------------------------------------|
|--7--8--7-5--7--8----------------------------------------------------------|
|---77-77-7-77-77-7---------------------------------------------------------|
|--------------------x4-----------------------------------------------------|
|---------------------------------------------------------------------------|
|---------------------------------------------------------------------------|
   **************** (light pm - release near end of fourth repeat)

Bridge (Guitar 2):
|---------------------------------------------------------------------------|
|---------------------------------------------------------------------------|
|-------------------------------------7777777777777777----------------------|
|--000000000000-4444-5555555555555555-7777777777777777-777777777777-5-7-----|
|--000000000000-4444-5555555555555555-5555555555555555-777777777777-5-7-----|
|--000000000000-4444-5555555555555555------------------777777777777-5-7-----|


Intro for Chorus

Guitar 1 plays Verse once

Guitar 1 plays Verse again as Guitar 2 plays Verse at same time

Bridge

Intro for Chorus


Bridge 2 (Guitar 2):
|---------------------------------------------------------------------------|
|---------------------------------------------------------------------------|
|------------------------------------7777777777777777-----------------------|
|--9999999999999999-5555555555555555-7777777777777777-7777777777777777------|
|--9999999999999999-5555555555555555-5555555555555555-7777777777777777------|
|--9999999999999999-5555555555555555------------------7777777777777777------|

|---------------------------------------------------------------------------|
|---------------------------------------------------------------------------|
|---------------------------------------------------------------------------|
|--4~~~-444-4~~~~-----------------------------------------------------------|
|--4~~~-444-4~~~~-----------------------------------------------------------|
|--4~~~-444-4~~~~-----------------------------------------------------------|
        ***

Riff 1 (Guitar 2):
|---------------------------------------------------------------------------|
|---7----7----7----7----7----7----7----7------------------------------------|
|----7----7----7----7----7----7----7----7-----------------------------------|
|--0----0----4----4----5----5----7----7------x4-----------------------------|
|---------------------------------------------------------------------------|
|---------------------------------------------------------------------------|
let all notes ring

Riff 1 (Guitar 1):
|--33333333----------33333333-----------------------------------------------|
|--22222222----------33333333-22222222--------------------------------------|
|--33333333----------00000000-22222222--------------------------------------|
|--00000000-44444444-00000000-22222222--------------------------------------|
|--00000000-44444444-22222222-00000000-------x6-----------------------------|
|-----------22222222-33333333-----------------------------------------------|


Outro (Guitar 1):
|---------------------------------------------------------------------------|
|---------------------------------------------------------------------------|
|--1212121212121212121212-1111111111-9999-77777777777777-121212-------------|
|--x-x-x-x-x-x-x-x-x-x-x--x-x-x-x-x--xxxx-xxxxxxxxxxxxxx-x-x-x--------------|
|--1010101010101010101010-9-9-9-9-9--7777-55555555555555-101010-------------|
|---------------------------------------------------------------------------|

|------------------------------------|--------------------------------------|
|------------------------------------|--------------------------------------|
|--11111111111111111111111111-121212-|-999-111111-77--999-111111-77---------|
|--x-x-x-x-x-x-x-x-x-x-x-x-x--x-x-x--|-xxx-x-x-x--xx--xxx-x-x-x--xx---------| x4
|--9-9-9-9-9-9-9-9-9-9-9-9-9--101010-|-777-9-9-9--55--777-9-9-9--55---------|
|------------------------------------|--------------------------------------|

                                      on the fourth repeat ends as:
|------------------------------------|--------------------------------------|
|------------------------------------|--------------------------------------|
|------------------------------------|-999-111111-77--999-111111-99-7~~~~---|
|------------------------------------|-xxx-x-x-x--xx--xxx-x-x-x--xx-x~~~~---|
|------------------------------------|-777-9-9-9--55--777-9-9-9--77-5~~~~---|
|------------------------------------|--------------------------------------|

Outro (Guitar 2):
|---------------------------------------------------------------------------|
|---------------------------------------------------------------------------|
|-------------------------------------7777777777777777----------------------|
|--000000000000-4444-5555555555555555-7777777777777777-7777777777777777--x4-|
|--000000000000-4444-5555555555555555-5555555555555555-7777777777777777-----|
|--000000000000-4444-5555555555555555------------------7777777777777777-----|

Guitar 2 ends on:
|----------|
|----------|
|----------|
|--0~~~~---|
|--0~~~~---|
|--0~~~~---|

============================================================================

Irony Of Dying On Your Birthday
Track Number 11
Some Credit to Daniel Miller

Intro
Guitar 1
e----------------------------------------------------|
B----------------------------------------------------|
G-12-12--12-12--12-12--13-13------8-8--8-8--8-8--7-7-|
D-10-10--10-10--10-10--10-10------6-6--6-6--6-6--6-6-|
A-10-10--10-10--10-10--10-10------6-6--6-6--6-6--6-6-|
D-10-10--10-10--10-10--10-10------6-6--6-6--6-6--6-6-|


e-------------------------------------------------------------|
B-------------------------------------------------------------|
G-12-12--12-12--12-12--13-13------7-7--7-7--7-7--8--8p7-------|
D-10-10--10-10--10-10--10-10------6-6--6-6--6-6--6--6-6-------|
A-10-10--10-10--10-10--10-10------6-6--6-6--6-6--6--6-6-------|
D-10-10--10-10--10-10--10-10------6-6--6-6--6-6--6--6-6-------|      3x's


Guitar 2 comes in on the third measure

e-------------------------------------------|
b-------------------------------------------|
G-12-12-12-12-12-13-13--8-8-8-8--10-10-8-7--|
D--x--x--x--x--x--x--x--x-x-x-x---x--x-x-x--|
A-10-10-10-10-10-11-11--6-6-6-6---8--8-6-5--|
D-------------------------------------------|  2x's


Verse (palm muted) 2 x's

e----------------------------------------------------------------|
B----------------------------------------------------------------|
G----------------------------------------------------------------|
D-10-10---10-10---10-10---10-10---10-10---10-10---10-10---10-10--|
A-10-10---10-10---10-10---10-10---10-10---10-10---10-10---10-10--|
D-10-10---10-10---10-10---10-10---10-10---10-10---10-10---10-10--|
   .  .    .  .    .  .    .  .    .  .    .  .    .  .    .  .
just know....
e-------------------------------------------------|
B-------------------------------------------------|
G-------------------------------------------------|
D-6-6---6-6---6-6---6-6---6-6---6-6---66666666----|
A-6-6---6-6---6-6---6-6---6-6---6-6---66666666----|
D-6-6---6-6---6-6---6-6---6-6---6-6---66666666----|
  . .   . .   . .   . .   . .   . .   ........

Pre-Chorus
Guitar 1

e------------------------------------------------|
B------------------------------------------------|
G------------------------------------------------|
D-10-10---10-12-13~----6-6---5-6-8-6-------------|
A-10-10----------------6-6-----------------------|
D-10-10----------------6-6-----------------------|
so follow...

e------------------------------------------------|
B------------------------------------------------|
G------------------------------------------------|
D-10-10---10-12-13~----6-6---5-6-----------------|
A-10-10----------------6-6---5-6-----------------|
D-10-10----------------6-6---5-6-----------------|


Guitar 2 Not sure about these notes but it was the best i could do

e------------------------------------------------|
B------------------------------------------------|
G------------------------------------------------|
D-10-10----------------6-6-----------------------|
A-10-10---10-11-13~----6-6---5-6-8-6-------------|
D-10-10----------------6-6-----------------------|

e------------------------------------------------|
B------------------------------------------------|
G------------------------------------------------|
D-10-10----------------6-6---5-6-----------------|
A-10-10---10-11-13~----6-6---5-6-----------------|
D-10-10----------------6-6---5-6-----------------|

Chorus 2 x's


Guitar 1

e-------------------------------------------------------------------------|
B-------------------------------------------------------------------------|
G-------------------------------------------------------------------------|
D-10-10-10-10-10-10-10-10-6-6-6-6-6-6-6-6-1-1-1-1-1-1-1-1-8-8-8-8---6---8-|
A-10-10-10-10-10-10-10-10-6-6-6-6-6-6-6-6-1-1-1-1-1-1-1-1-8-8-8-8---6---8-|
D-10-10-10-10-10-10-10-10-6-6-6-6-6-6-6-6-1-1-1-1-1-1-1-1-8-8-8-8---6---8-|

I locked myself...


Guitar 2

e----------------------------------------------------------------------------------|
B----------------------------------------------------------------------------------|
G-12-12-12-12-12-12-13-13---8-8-8-8-8-8-7-7---12-12-12-12-12-12-12-12-7-7-7-7--5-7-|
D--x--x--x--x--x--x--x--x---x-x-x-x-x-x-x-x----x--x--x--x--x--x--x--x-x-x-x-x--x-x-|
A-10-10-10-10-10-10-11-11---6-6-6-6-6-6-5-5---10-10-10-10-10-10-10-10-5-5-5-5--3-5-|
D----------------------------------------------------------------------------------|

Verse 2x's


Pre-Chorus


Chorus 2x's

Bridge 2 x's  palm muted

Guitar 1

e----------------------------------------------------------------------------------------------|
B----------------------------------------------------------------------------------------------|
G-88-77-----88-77-----88--77--88-77-----88-77-----88-77--88-77-----88-77-----88-77--10-10-8-7--|
D-------88--------88----------------88--------88---------------88--------88--------------------|
A----------------------------------------------------------------------------------------------|
D----------------------------------------------------------------------------------------------|
  .. .. ..  .. .. ..          .. .. ..  .. .. ..         .. .. ..  .. .. ..


Bridge 2 x's open


Guitar 2 2 x's palm muted

e----------------------------------------------------------------------------|
B----------------------------------------------------------------------------|
G----------------------------------------------------------------------------|
D-10-10-10-10-10-----6-6-6-6-6-----1-1-1-1-1-----8-8-8-8-8--6-6-6-6-6--8-8-8-|
A-10-10-10-10-10-----6-6-6-6-6-----1-1-1-1-1-----8-8-8-8-8--6-6-6-6-6--8-8-8-|
D-10-10-10-10-10-----6-6-6-6-6-----1-1-1-1-1-----8-8-8-8-8--6-6-6-6-6--8-8-8-|

Open

e----------------------------------------------------------------------------|
B----------------------------------------------------------------------------|
G----------------------------------------------------------------------------|
D-10-10---10-10------6-6---6-6------1-1---1-1-----8-8---8-8---6-6-8-8--------|
A-10-10---10-10------6-6---6-6------1-1---1-1-----8-8---8-8---6-6-8-8--------|
D-10-10---10-10------6-6---6-6------1-1---1-1-----8-8---8-8---6-6-8-8--------|

e--------------------------------------------------------------------------------------------------|
B--------------------------------------------------------------------------------------------------|
G--------------------------------------------------------------------------------------------------|
D-10-10--10-10--10-10--10-10-----6-6--6-6--6-6--6-6-----1-1--1-1--1-1--1-1-----8-8--8-8--8-8--8-8--|
A-10-10--10-10--10-10--10-10-----6-6--6-6--6-6--6-6-----1-1--1-1--1-1--1-1-----8-8--8-8--8-8--8-8--|
D-10-10--10-10--10-10--10-10-----6-6--6-6--6-6--6-6-----1-1--1-1--1-1--1-1-----8-8--8-8--8-8--8-8--|


Chorus 2x's

OUTRO:

GUITAR 1:

|------------------------------------------------------------------------|
|------------------------------------------------------------------------|
|--1212121212121212-88-13131313131313-121212--88888888-1010--------------|
|---x-x-x-x-x-x-x-x-xx--x-x-x-x-x-x-x--x-x-x--xxxxxxxx--x-x--------------|
|--1010101010101010-66-11111111111111-101010--66666666--8-8--------------|
|------------------------------------------------------------------------|

|-----------------------------------------|-------------------------------|
|-----------------------------------------|-------------------------------|
|--777777-5555-77-------------------------|-------5-7-8-------------------|
|--xxxxxx-xxxx-xx---(play last 2 lines 2x)|(THEN)-x-x-x--(slide back)-----|
|--555555-3333-55-------------------------|-------3-5-7-------------------|
|-----------------------------------------|-------------------------------|

*For Guitar 2, just play the regular chorus again, but do this at the end:

|------------------------------------------------------------------------|
|------------------------------------------------------------------------|
|------------------------------------------------------------------------|
|--6-8-9-----------------------------------------------------------------|
|--6-8-9---(slide back)--------------------------------------------------|
|--6-8-9-----------------------------------------------------------------|

============================================================================

Angela Baker and My Obsession With Fire
Track Number 12
Credited to J-DIZZLE

INTRO
Guitar 1 INTRO
(Quieter part)
E|---0000000-|
B|---5405405-|
G|-----------|
D|2----------|
A|2----------|
D|2----------|

E|00000000000000000000000000000000000000000000000
B|54054050540540507407407054054050540540505405405
G|-----------------------------------------------|
D|-----------------------------------------------|
A|-----------------------------------------------|
D|-----------------------------------------------|

E|----0-----0---------0-----0-----0--------------|
B|--------------------------------0--------------|
G|1-2---1-2---1-2-1-2---1-2---1-2-1--------------|
D|-----------------------------------------------|
A|-----------------------------------------------|
D|-----------------------------------------------|

Guitar 2 INTRO
E|-------------------------------------------------------------------|
B|-------------------------------------------------------------------|
G|-------------------------------------------------------------------|
D|222222222222-444-555555555555555-000000000000000-7777777777777777--|
A|222222222222-444-555555555555555-000000000000000-7777777777777777--| X2
D|222222222222-444-555555555555555-000000000000000-7777777777777777--|

E|----------------------------------------|
B|----------------------------------------|
G|----------------------------------------|
D|2-2-2222-0-2-2-2222-0-2-----------------|
A|2-2-2222-0-2-2-2222-0-2-----------------|
D|2-2-2222-0-2-2-2222-0-2--*PICK SCRAPE*--|

VERSES
Guitar 1 (x2)
| E|-----0000000000     E|-----0000000000-----00000000000-|
| B|-----5555444422     B|-----5555444422-----55554455775-|
| G|---------------     G|--------------------------------|
| D|4-4------------ X2  D|2-2-------------2-2-------------|
| A|4-4------------     A|2-2-------------2-2-------------|
| D|4-4------------     D|2-2-------------2-2-------------|

E|000000000000000000000000000000000000000000000000000000000000000
B|555555555555555544444455555577779999977777755554444440000000000
G|---------------------------------------------------------------|
D|---------------------------------------------------------------|
A|---------------------------------------------------------------|
D|---------------------------------------------------------------|

VERSES
Guitar 2
E|-----|-G---|    E|-----|-G---|
B|-----|-U---|    B|-----|-U---|
G|-----|-I-1-|    G|-----|-I-1-|
D|-4-4-|-T---|X2  D|-2-2-|-T---|X2
A|-4-4-|-A---|    A|-2-2-|-A---|
D|-4-4-|-R---|    D|-2-2-|-R---|

E|-----------------------------------------------------------|
B|-----------------------------------------------------------|
G|-----------------------------------------------------------|
D|777-77-7-7777-555-5-5-5-5555-222-2-2-2-2222-222-2-2-2-2222-|
A|777-77-7-7777-555-5-5-5-5555-222-2-2-2-2222-222-2-2-2-2222-|
D|777-77-7-7777-555-5-5-5-5555-222-2-2-2-2222-222-2-2-2-2222-|
  ... .. . .... ... . . . .... ... . . . .... ... . . . .... P.M.

THE CHORUS IS THE INTRO
THE VERSES ARE THE SAME

Bridge(Both Guitars)
E|----0--0--0---|
B|----5--4--2---|
G|--------------|X2
D|-4----------2-|
A|-4----------2-|
D|-4----------2-|

THE REST OF THE SONG IS GUITAR 2'S P.M. PART, BUT U SHOULD KNOW WHEN TO P.M. AND 2 NOT.

============================================================================

Martini Kiss
Track Number 13
Credited to Useasdirected

 Guitar One(Garret)

Intro
e------------------------------------------------------|x2
b------------------------------------------------------|
g------------------------------------------------------|
d------------------------------------------------------|
a-----------8877----------------88101077---------------|
d-000888777------1010-000888777------------------------|
PM.......PM.........PM..........PM..........PM........

Intro 2

e-----------------------------------------------------|x2
b-101010--888--666-888-66-5~--------------------------|
g-----------------------------------------------------|
d-----------------------------------------------------|
a-----------------------------------------------------|
d-----------------------------------------------------|

Verse


e------------------------------------------------------|x2
b------------------------------------------------------|
g------------------------------------------------------|
d------------------------------------------------------|
a-----------8877----------------88101077---------------|
d-000888777------1010-000888777------------------------|
(below double up on the notes)(so it would be 16 times each note)
e------------------------------------------------------|x2
b------------------------------------------------------|
g------------------------------------------------------|
d-8-8-8-8-8-8-888x0-0-0-0-0-000000---------------------|
a-8-8-8-8-8-8-888x0-0-0-0-0-000000---------------------|
d-8-8-8-8-8-8-888x0-0-0-0-0-000000---------------------|
                  PM...............

Chorus


e-----------------------------------------------------|x4
b-101010--888--666-888-66-5~--------------------------|
g-----------------------------------------------------|
d-----------------------------------------------------|
a-----------------------------------------------------|
d-----------------------------------------------------|


Bridge

e--5--5--5---3--3--3--6--6--6--5-5-5-5---------------|x2
b---6--6--6---6--6--6---6-6--6--6-6-6-6--------------|
g----------------------------------------------------|
d----------------------------------------------------|
a----------------------------------------------------|
d----------------------------------------------------|


Middle


e-----------------------------------------------------|x4
b-101010--888--666-888-66-5~--------------------------|
g-xxxxxx--xxx--xxx-xxx-xx-----------------------------|
d-777777--555--333-555-33-----------------------------|
a-----------------------------------------------------|
d-----------------------------------------------------|

e-----------------------------------------------------|
b-----------------------------------------------------|
g-----------------------------------------------------|
d-0-8-7--10-10----------------------------------------|
a-0-8-8--8--7-----------------------------------------|
d-0-8-7--------10~------------------------------------|


e-----------------------------------------------------|
b-----------------------------------------------------|
g-1515151515151515-1717171717171717-000-000-000-------|
d-xxxxxxxxxxxxxxxx-xxxxxxxxxxxxxxxx-000-000-000-------|
a-1313131313131313-1515151515151515-000-000-000-------|
d-----------------------------------------------------|



                             Guitar 2(dave)

(gradual build up) Intro
e--------------------------------------------------|
b--------------------------------------------------|
g--------------------------------------------------|
d-101010101010101010-------------------------------|
a-000000000000000000-------------------------------|
d-000000000000000000-------------------------------|
 

Intro 2
e--------------------------------------------------|
b--------------------------------------------------|
g--------------------------------------------------|
d-1010101010101010-1010101010101010----------------|
a-8-8-8-8-8-8-8888-8-8-8-8-8-8-8888----------------|
d-8-8-8-8-8-8-8888-8-8-8-8-8-8-8888--12/-----------|


e--------------------------------------------------|
b--------------------------------------------------|
g--------------------10109-9-----------------------|
d-101010101010101010-x-x-x-x-----------------------|
a-000000000000000000-8-8-7-7-----------------------|
d-000000000000000000-------------------------------|

Harmonization

e-888-666-5~-666-55-3~---------------------------|x2
b------------------------------------------------|
g------------------------------------------------|
d------------------------------------------------|
a------------------------------------------------|
d------------------------------------------------|

Verse

e-------------------------------------------------|
b-------------------------------------------------|
g-------------------------------------------------|
d-0~----------------------------------------------|
a-0~----------------------------------------------|
d-0~----------------------------------------------|


(below double up on the notes)(so it would be 16 times each note)
e------------------------------------------------------|x2
b------------------------------------------------------|
g------------------------------------------------------|
d-8-8-8-8-8-8-888x0-0-0-0-0-000000---------------------|
a-8-8-8-8-8-8-888x0-0-0-0-0-000000---------------------|
d-8-8-8-8-8-8-888x0-0-0-0-0-000000---------------------|




(below double up on the notes)(so it would be 16 times each note)
e------------------------------------------------------|x2
b------------------------------------------------------|
g------------------------------------------------------|
d-8-8-8-8-8-8-888x0-0-0-0-0-000000---------------------|
a-8-8-8-8-8-8-888x0-0-0-0-0-000000---------------------|
d-8-8-8-8-8-8-888x0-0-0-0-0-000000---------------------|


Chorus 2(harminization)


e-888-666-5~-666-55-3~---------------------------|x2
b------------------------------------------------|
g------------------------------------------------|
d------------------------------------------------|
a------------------------------------------------|
d------------------------------------------------|


Bridge

e------------------------------------------------|
b------------------------------------------------|
g------------------------------------------------|
d-33333332222222-88888888-0000000000-------------|
a-33333333333333-88888888-0000000000-------------|
d-33333332222222-88888888-0000000000-------------|


e------------------------------------------------|
b------------------------------------------------|
g------------------------------------------------|
d-33333332222222-88888888-0000000000-------------|
a-33333333333333-88888888-0000000000-------------|
d-33333332222222-88888888-0000000000-------------|


e--------------------------------------------------|
b--------------------------------------------------|
g--------------------------------------------------|
d-1010101010101010-1010101010101010----------------|
a-8-8-8-8-8-8-8888-8-8-8-8-8-8-8888----------------|
d-8-8-8-8-8-8-8888-8-8-8-8-8-8-8888--12/-----------|


e--------------------------------------------------|
b--------------------------------------------------|
g--------------------10109-9-----------------------|
d-101010101010101010-x-x-x-x-----------------------|
a-000000000000000000-8-8-7-7-----------------------|
d-000000000000000000-------------------------------|


(harminization)


e-888-666-5~-666-55-3~---------------------------|x2
b------------------------------------------------|
g------------------------------------------------|
d------------------------------------------------|
a------------------------------------------------|
d------------------------------------------------|


Verse 2

(below double up on the notes)(so it would be 16 times each note)
e------------------------------------------------------|x2
b------------------------------------------------------|
g------------------------------------------------------|
d-8-8-8-8-8-8-888x0-0-0-0-0-000000---------------------|
a-8-8-8-8-8-8-888x0-0-0-0-0-000000---------------------|
d-8-8-8-8-8-8-888x0-0-0-0-0-000000---------------------|



Chorus

e--------------------------------------------------|
b--------------------------------------------------|
g--------------------------------------------------|
d-1010101010101010-1010101010101010----------------|
a-8-8-8-8-8-8-8888-8-8-8-8-8-8-8888----------------|
d-8-8-8-8-8-8-8888-8-8-8-8-8-8-8888--12/-----------|


e--------------------------------------------------|
b--------------------------------------------------|
g--------------------10109-9-----------------------|
d-101010101010101010-x-x-x-x-----------------------|
a-000000000000000000-8-8-7-7-----------------------|
d-000000000000000000-------------------------------|



(harminization)


e-888-666-5~-666-55-3~---------------------------|x2
b------------------------------------------------|
g------------------------------------------------|
d------------------------------------------------|
a------------------------------------------------|
d------------------------------------------------|


Bridge


e------------------------------------------------|
b------------------------------------------------|
g------------------------------------------------|
d-33333332222222-88888888-0000000000-------------|
a-33333333333333-88888888-0000000000-------------|
d-33333332222222-88888888-0000000000-------------|


e------------------------------------------------|
b------------------------------------------------|
g------------------------------------------------|
d-33333332222222-88888888-0000000000-------------|
a-33333333333333-88888888-0000000000-------------|
d-33333332222222-88888888-0000000000-------------|


Middle(wait for garret to do the main riff with tremolo)


e-----------------------------------------------------|
b-----------------------------------------------------|
g-----------------------------------------------------|
d-0-8-7--10-10----------------------------------------|
a-0-8-8--8--7-----------------------------------------|
d-0-8-7--------10~------------------------------------|



e-----------------------------------------------------|
b-----------------------------------------------------|
g-----------------------------------------------------|
d-0-8-7--10-10----------------------------------------|
a-0-8-8--8--7-----------------------------------------|
d-0-8-7--------10~------------------------------------|


e-----------------------------------------------------|x2
b-----------------------------------------------------|
g-----------------------------------------------------|
d-88888888-101010101010-0-0-0000-0-0-0000-------------|
a-88888888-101010101010-0-0-0000-0-0-0000-------------|
d-88888888-101010101010-0-0-0000-0-0-0000-------------|
                        PM................
e------------------------------------------------------|
b------------------------------------------------------|
g------------------------------------------------------|
d-88888888-1010101010----------------------------------|
a-88888888-1010101010----------------------------------|
d-88888888-1010101010----------------------------------|

e------------------------------------------------------|
b------------------------------------------------------|
g------------------------------------------------------|
d-88888888-1010101010----------------------------------|
a-88888888-1010101010----------------------------------|
d-88888888-1010101010----------------------------------|


Outro

e--------------------------------------------------|
b--------------------------------------------------|
g--------------------------------------------------|
d-0-0--0--0-0000000-0-0-0-0--00000000--------------|
a-0-0--0--0-0000000-0-0-0-0--00000000--------------|
d-0-0--0--0-0000000-0-0-0-0--00000000--------------|
PM...    PM........................................

==========================================================================

Institutionalized
Track Number 14
Credited To Kiefermatot

Verses:

E|---------------------|
B|---------------------|
G|---------------------|
D|---------------------|
A|--8-8-8-/-9-9-9-9-9--|
E|--6-6-6-/-7-7-7-7-7--|

after you play that twice, u play this once:

E|------------------|
B|------------------|
G|------------------|
D|------------------|
A|--6-7~-6-7-9------|
E|--------------8~--|

note: this is only play after the first two measures of each verse.
if you listen to it you'll figure it out.

after u play the verse about 28 times. You play this:
note: this is very very fast to play.

Pre Chorus:
E|---------------------|
B|---------------------|
G|---------------------|
D|-------8-8-------9-9-|
A|--8-8-6-6--9-9-7-7---|
E|--6-6-------7-7------|

Chorus:

I'M NOT CRAZY!.....
E|-------------------|
B|-------------------|
G|-------------------|
D|-------------------|
A|--4-4-4-4-4-4-4-4--|
E|--2-2-2-2-2-2-2-2--|

INSTITUTION!....
E|--------------------|
B|--------------------|
G|--------------------|
D|--6-6-6-6--4-4-4-4--|
A|--4-4-4-4--2-2-2-2--|
E|--------------------|

They stick me in an institution....
E|----------------------------|
B|----------------------------|
G|----------------------------|
D|-------8-8-------9-9--------|
A|--8-8--6-6--9-9--7-7--------|
E|--6-6-------7-7-------------|

===========================================================================

American Death
Track Number 15..
ALL CREDIT TO THE ONE AND ONLY GARRETT ZABLOCKI...if he really did tab it..

Verse/Intro
Guitar 1: Played for entire intro and both verses.

E|------------------------------------------------------------------|
B|------------------------------------------------------------------|
G|------------------------------------------------------------------|
D|------------------------3p2---------------------------------------|
A|-5--5-3-v5--5-3-v5--5-3-----3-3s5--5--5-3-5--5-3-5--5-3-----------|
D|--------------------------------------------------------5-3-0-0---|

Guitar 2: Harmony for the Verse
E|------------------------------------------------------------------|
B|------------------------------------------------------------------|
G|------------------------------------------------------------------|
D|------------------------7p5---------------------------------------|
A|-8--8-7-v8--8-7-v8--8-7-----7-7s8--8--8-7-8--8-7-8--8-7-----------|
D|--------------------------------------------------------8-7-3-3---|

-------------------------------
Pre-Chorus
Guitar 1 & 2: Listen to song for rhythm.

E|------------------------------------------------------------------------------------|
B|------------------------------------------------------------------------------------|
G|------------------------------------------------------------------------------------|
D|-33-00-00--55-00-00-33-00-3-00-3-0-5-3-00--33-00-00--55-00-00-33-00-3-00-3-0-5-3-00-|
A|-33-00-00--55-00-00-33-00-3-00-3-0-5-3-00--33-00-00--55-00-00-33-00-3-00-3-0-5-3-00-|
D|-33-00-00--55-00-00-33-00-3-00-3-0-5-3-00--33-00-00--55-00-00-33-00-3-00-3-0-5-3-00-|

E|------------|
B|------------|
G|------------|
D|-3--5-10-10-|
A|-3--5-8--8--|
D|-3--5-8--8--|

------------------------------
Chorus:
Guitar 1 & 2: Listen to song for rhythm.

E|------------------------------------------------------------------|
B|------------------------------------------------------------------|
G|------------------------------------------------------------------|
D|-0-3-0-8-10--0-3-0-5-5---0-3-0-8-10-10----------------------------|
A|-0-3-0-8-10--0-3-0-5-3---0-3-0-8-10-8-----------------------------|
D|-0-3-0-8-10--0-3-0-5-2---0-3-0-8-10-7-----------------------------|

------------------------------
Post-Chorus: ("off-time part")
Guitar 1 & 2: Listen to song for rhythm.

E|------------------------------------------------------------------|
B|------------------------------------------------------------------|
G|------------------------------------------------------------------|
D|-0-3-5-0-3-5-0-3-5-0-8-10---0-3-5-0-3-5-0-3-5-0-7-5-3-5-0---------|
A|-0-3-5-0-3-5-0-3-5-0-8-10---0-3-5-0-3-5-0-3-5-0-7-5-3-3-0---------|
D|-0-3-5-0-3-5-0-3-5-0-8-10---0-3-5-0-3-5-0-3-5-0-7-5-3-2-0---------|

-------------------------------
Bridge:
Guitar 1: Main

E|------------------------------------------------------------------|
B|------------------------------------------------------------------|
G|------------------------------------------------------------------|
D|-0-------3---0------------0-------3---0--3-3h5-3------------------|
A|-0-0h3h5-----0--0h3h5-3---0-0h3h5-----0---------------------------|
D|-0-----------0------------0-----------0---------------------------|

Guitar 2: Harmony
E|------------------------------------------------------------------|
B|------------------------------------------------------------------|
G|----------------------------------2------2-2h3-2------------------|
D|--------------------------0-0h2h3-----0---------------------------|
A|--------------------------0-----------0---------------------------|
D|--------------------------0-----------0---------------------------|

-------------------------------

Solo:
E|-----------10---------------------------------------------------------------------------------------|
B|--------10-----13p10--------------------10------------------------------------11p10-----------------|
G|-12b14----------------12--------10----------12--12p10--12b14-12p10h12-12p10---------12-12-10--------|
D|--------------------------10h12-----10-------------------------------------------------------12-----|
A|----------------------------------------------------------------------------------------------------|
D|----------------------------------------------------------------------------------------------------|


E|-----------10--------------------------------------13----------15b17-15--13h15p13-13-13s12----------|
B|--------10-----13p10----------------11-11p10-11s15----15-13-13-----------------------------13s10----|
G|-12b14----------------12--------10------------------------------------------------------------------|
D|--------------------------10h12---------------------------------------------------------------------|
A|----------------------------------------------------------------------------------------------------|
D|----------------------------------------------------------------------------------------------------|

E|-----------10---------------------------------------------------------------------------------------|
B|--------10-----13p10--------------------10------------------------------------11p10-----------------|
G|-12b14----------------12--------10----------12--12p10--12b14-12p10h12-12p10---------12-12-10--------|
D|--------------------------10h12-----10-------------------------------------------------------12-----|
A|----------------------------------------------------------------------------------------------------|
D|----------------------------------------------------------------------------------------------------|


E|-----------10--------------------------------------13----------15b17-15--13h15p13-13-13s12----------|
B|--------10-----13p10----------------11-11p10-11s15----15-13-13-----------------------------13-13s15-|
G|-12b14----------------12--------10------------------------------------------------------------------|
D|--------------------------10h12---------------------------------------------------------------------|
A|----------------------------------------------------------------------------------------------------|
D|----------------------------------------------------------------------------------------------------|

E|-------------------------15b17-15p13s12-------|
B|-15-15-13-15-15-13-15p13---------------13s15--|
G|----------------------------------------------|
D|----------------------------------------------|
A|----------------------------------------------|
D|----------------------------------------------|


==========================================================================

Lady In A Blue Dress Acoustic
Track Number 16

Guitar One:
Intro
part 1-x2
e|----------------------------------------------------|
b|----------------------------------------------------|
g|-14-14-14-14-14-14-99999/11-11-11-11-11-11-11-99999/|
d|--x--x--x--x--x--x-xxxxx--x--x--x--x--x--x--x-xxxxx-|
a|-12-12-12-12-12-12-77777/-9--9--9--9--9--9--9-77777-|
e|----------------------------------------------------|


part 2-part 1-x2

Verse-x4
e|----------------------------------------------------|
b|----------------------------------------------------|
g|-14-14-14-14-14-14-99999/11-11-11-11-11-11-11-99999/|
d|--x--x--x--x--x--x-xxxxx--x--x--x--x--x--x--x-xxxxx-|
a|-12-12-12-12-12-12-77777/-9--9--9--9--9--9--9-77777/|
e|----------------------------------------------------|

Chorus-
e|--------------------------------|\
b|--------10----------10----------| \
g|-----11----11----11---11--------|  \ x3
d|--12----------12--------12------|  /
a|--------------------------------| /
e|--------------------------------|/

e|--------------------------------|
b|--------------------------------|
g|--------------------------------|
d|--12-12-12-12-12-12-12-12-------|
a|--------------------------------|
e|--------------------------------|

Bridge
e|--------------------------------------------------|\
b|--------------------------------------------------| \
g|-11111111111111111111111111/14-7777777771212121299|  \x3
d|--x-x-x-x-x-x-x-x-x-x-x-x-x----xxxxxxxxx-x-x-x-xxx|  /
a|--9-9-9-9-9-9-9-9-9-9-9-9-9/12-5555555551010101077| /
e|--------------------------------------------------|/

e|-------------------------------------------------|
b|-------------------------------------------------|
g|-11111111111111111111111111/14-7777777777777777--|
d|--x-x-x-x-x-x-x-x-x-x-x-x-x----xxxxxxxxxxxxxxxx--|
a|--9-9-9-9-9-9-9-9-9-9-9-9-9/12-5555555555555555--|
e|-------------------------------------------------|

Verse 2-
e|----------------------------------------------------|
b|----------------------------------------------------|
g|-14-14-14-14-14-14-99999/11-11-11-11-11-11-11-99999/|
d|--x--x--x--x--x--x-xxxxx--x--x--x--x--x--x--x-xxxxx-|
a|-12-12-12-12-12-12-77777/-9--9--9--9--9--9--9-77777/|
e|----------------------------------------------------|

e|---------------------------------------------|
b|---------------------------------------------|
g|-14-14-14-14-14-14-99999/11-11-11-11-11-11-11|
d|--x--x--x--x--x--x-xxxxx--x--x--x--x--x--x--x|
a|-12-12-12-12-12-12-77777/-9--9--9--9--9--9--9|
e|---------------------------------------------|

Order:
Intro (part 1 and 2)
Verse "just like a lady in a blue dress..."
Chorus "you say that you want respect..."
Verse "so you say that i am rated X..."
Chorus "you say that you want respect..."
Bridge "don't try to think you'll win..."
Verse 2 "just like a lady in a blue dress..."
Chorus "you say that you want respect..."
(NOTE: on last chorus keep playing d|-12-12-12-12-12-12-12-12-| until end)

//////////////////////////////////////\\\\\\\\\\\\\\\\\\\\\\\\\\\\\\\\\\\\\\

Guitar 2
Intro-
e|-------------------------------|
b|-------------------------------|
g|-------------------------------|
d|-9-------0------5------0-------|
a|-9-(x6)--0-(x4)-5-(x6)-0-(x4)--|
d|-9-------0------5------0-------|

Verse-
e|-------------------------------|
b|-------------------------------|
g|-------------------------------|
d|-9-------7------5-------7------|
a|-9-(x6)--7-(x2)-5-(x6)--7-(x2)-|
e|-9-------7------5-------7------|

Chorus
e|----------------------------|
b|----------------------------|
g|----------------------------|
d|-0------7-----9------5------|
a|-0-(x8)-7-(x8)9-(x8)-5-(x8)-|
e|-0------7-----9------5------|

Bridge
e|-----------------------------------|\
b|-----------------------------------| \
g|-----------------------------------|  \x3
d|-9-9-9-9-9-9--7--5-5-5-5-5-5--7----|  /
a|-9-9-9-9-9-9--7--5-5-5-5-5-5--7----| /
e|-9-9-9-9-9-9--7--5-5-5-5-5-5--7----|/

e|-----------------------------------|
b|-----------------------------------|
g|-----------------------------------|
d|-9-9-9-9-9-9--7--5-5-5-5-5-5-5-5---|
a|-9-9-9-9-9-9--7--5-5-5-5-5-5-5-5---|
e|-9-9-9-9-9-9--7--5-5-5-5-5-5-5-5---|

Verse 2
e|-------------------------------|
b|-------------------------------|
g|-------------------------------|
d|-9-------7------5-------7------|
a|-9-(x6)--7-(x2)-5-(x6)--7-(x2)-|
e|-9-------7------5-------7------|

e|-----------------------|
b|-----------------------|
g|-----------------------|
d|-9-------7------5------|
a|-9-(x6)--7-(x2)-5-(x5)-|
e|-9-------7------5------|

Order:
Intro
Verse x4 "just like a lady in a blue dress..."
Chorus x4 "you say that you want respect..."
Verse x4 "so you say that i am rated X..."
Chorus x4 "you say that you want respect..."
Bridge "don't try to think you'll win..."
Verse 2 x2 "just like a lady in a blue dress..."
Chorus x2 "you say that you want respect..."
End on:
e|----|
b|----|
g|----|
d|-0~-|
a|-0~-|
d|-0~-|


===========================================================================

Buried A Lie Acoustic
Track Number 17

Guitar One

Intro:
e|---------------------------------|
B|---------------------------------|
G|-------2-------------2-----------|
D|-----0---4---2-0---0---4---2-----|
A|---4-------4-----4-------4-------|
D|---------------------------------|

Intro Cont.:(x2)
e|-------------------------------------------------------------|
B|-------------------------------------------------------------|
G|---666-777-1414141414141414-11111111-11/14-99999999-111111---|
D|---xxx-xxx--x-x-x-x-x-x-x-x--x-x-x-x--x/-x-xxxxxxxx--x-x-x---|
A|---444-555-1212121212121212--9-9-9-9--9/12-77777777--9-9-9---|
D|-------------------------------------------------------------|

Pre-Verse:
e|-----------------------------------------------------------------|
B|-----------------------------------------------------------------|
G|-----------------------------------------------------------------|
D|---555---000---555---000---5555---555---000---555---000---5555---|
A|---555---000---555---000---5555---555---000---555---000---5555---|
D|---555---000---555---000---5555---555---000---555---000---5555---|

Verse:
e|---------------------------------------------------------------------|
B|---------------------------------------------------------------------|
G|---------------------------------------------------------------------|
D|-0000000000000000-4444444444444444-9999999999999999-5555555555555555-|
A|-0000000000000000-4444444444444444-9999999999999999-5555555555555555-|
D|-0000000000000000-4444444444444444-9999999999999999-5555555555555555-|


Verse Cont.:
e|-------------------------------------------------------------------------|
B|-222-101010-7777-5555-222-101010-7777-8888-222-101010-777-555-33333333---|
G|-------------------------------------------------------------------------|
D|-------------------------------------------------------------------------|
A|-------------------------------------------------------------------------|
D|-------------------------------------------------------------------------|


Chorus: (x2)
e|-------------------------------------------|
B|---10~--7~--5h7~--10~--7~--5h7~-----5------|
G|---------------------------------7-----7---|
D|-------------------------------------------|
A|-------------------------------------------|
D|-------------------------------------------|


Pre-Verse:
e|-------------------------------------|
B|-------------------------------------|
G|-------------------------------------|
D|---555---000---555---000---5555------|
A|---555---000---555---000---5555------|
D|---555---000---555---000---5555------|



Verse:
e|---------------------------------------------------------------------|
B|---------------------------------------------------------------------|
G|---------------------------------------------------------------------|
D|-0000000000000000-4444444444444444-9999999999999999-5555555555555555-|
A|-0000000000000000-4444444444444444-9999999999999999-5555555555555555-|
D|-0000000000000000-4444444444444444-9999999999999999-5555555555555555-|


Verse Cont.:
e|-------------------------------------------------------------------------|
B|-222-101010-7777-5555-222-101010-7777-8888-222-101010-777-555-33333333---|
G|-------------------------------------------------------------------------|
D|-------------------------------------------------------------------------|
A|-------------------------------------------------------------------------|
D|-------------------------------------------------------------------------|

Chorus: (x4)
e|-------------------------------------------|
B|---10~--7~--5h7~--10~--7~--5h7~-----5------|
G|---------------------------------7-----7---|   <----Note play this
D|-------------------------------------------|        four times...
A|-------------------------------------------|
D|-------------------------------------------|


Bridge:
e|--------------------------------------|
B|--------------------------------------|
G|---7777777777777777-999999-66666666---|
D|---xxxxxxxxxxxxxxxx-xxxxxx-xxxxxxxx---|
A|---5555555555555555-777777-44444444---|
D|--------------------------------------|

e|---------------------------------|
B|---------------------------------|
G|-------2-------------2-----------|
D|-----0---4---2-0---0---4---2-----|
A|---4-------4-----4-------4-------|
D|---------------------------------|


e|-----------------------------------------------|
B|-----------------------------------------------|
G|-----------------------------------------------|
D|-----------------------------------------------|
A|-----------------------------------------------|
D|---555-000-555-000-5555-555-000-555-000-5555---|


e|----------------------------------------|
B|----------------------------------------|
G|----------------------------------------|
D|-555-000-555-000-5555-555-000-5-5555555-|
A|-555-000-555-000-5555-555-000-5-5555555-|
D|-555-000-555-000-5555-555-000-5-5555555-|
                               

Chorus Three:(x2)
e|-------------------------------------------------------------|
B|-------------------------------------------------------------|
G|---666-777-1414141414141414-11111111-11/14-99999999-111111---|
D|---xxx-xxx--x-x-x-x-x-x-x-x--x-x-x-x--x/-x-xxxxxxxx--x-x-x---|
A|---444-555-1212121212121212--9-9-9-9--9/12-77777777--9-9-9---|
D|-------------------------------------------------------------|

Chorus-Outro:
e|-----------------------------------------|
B|-----------------------------------------|
G|-66-77777777777777-111111111111-66666666-|
D|-xx-xxxxxxxxxxxxxx-x-x-x-x-x-x--xxxxxxxx-|
A|-44-55555555555555-9-9-9-9-9-9--44444444-|
D|-----------------------------------------|

e|----------------------------------------|
B|----------------------------------------|
G|-7777777777777777-111111111111-66666666-|
D|-xxxxxxxxxxxxxxxx-x-x-x-x-x-x--xxxxxxxx-|
A|-5555555555555555-9-9-9-9-9-9--44444444-|
D|----------------------------------------|

Outro:
e|--------------------------------------------------------------------|
B|--------------------------------------------------------------------|
G|----------------------------------------------------------66/1111---|
D|---555---000---555---000---5555---555---000---555---000---xx/-x-x---|
A|---555---000---555---000---5555---555---000---555---000---44/-9-9---|
D|---555---000---555---000---5555---555---000---555---000-------------|

End On:                                                        ^
e|--------|                                                    |
B|--------|                                             - - - - 
G|--------|                                            |
D|---0~---|                                      I'm not totally sure about
A|---0~---|                                   this part, guitar one does do
D|---0~---|                                  something...i play this...



//////////////////////////////////////\\\\\\\\\\\\\\\\\\\\\\\\\\\\\\\\\\\\\\

Guitar 2


Intro: 
e|---------------------------------------|
B|---------------------------------------|
G|---11111111---777777---2222---999999---|
D|----9-9-9-9---555555---0000---777777---|
A|----9-9-9-9---555555---0000---777777---|
D|----9-9-9-9---555555---0000---777777---|

e|-----------------------------------|
B|-----------------------------------|
G|---11111111---777777---2222---9~---|
D|----9-9-9-9---555555---0000---7~---|
A|----9-9-9-9---555555---0000---7~---|
D|----9-9-9-9---555555---0000---7~---|

Then...Intro Cont.:(x2)
e|---------------------------------------|
B|---------------------------------------|
G|---11111111---777777---2222---999999---|
D|----9-9-9-9---555555---0000---777777---|
A|----9-9-9-9---555555---0000---777777---|
D|----9-9-9-9---555555---0000---777777---|


Pre-Verse:
e|-----------------------------------------------------------------|
B|-----------------------------------------------------------------|
G|-----------------------------------------------------------------|
D|---555---000---555---000---5555---555---000---555---000---5555---|
A|---555---000---555---000---5555---555---000---555---000---5555---|
D|---555---000---555---000---5555---555---000---555---000---5555---|


Verse: (x2)
e|---------------------------------------------------------------------|
B|---------------------------------------------------------------------|
G|---------------------------------------------------------------------|
D|-0000000000000000-4444444444444444-9999999999999999-5555555555555555-|
A|-0000000000000000-4444444444444444-9999999999999999-5555555555555555-|
D|-0000000000000000-4444444444444444-9999999999999999-5555555555555555-|


Chorus: (x2)
e|---------------------------------------|
B|---------------------------------------|
G|---11111111---777777---2222---999999---|
D|----9-9-9-9---555555---0000---777777---|
A|----9-9-9-9---555555---0000---777777---|
D|----9-9-9-9---555555---0000---777777---|


Pre-Verse:

e|-------------------------------------|
B|-------------------------------------|
G|-------------------------------------|
D|---555---000---555---000---5555------|
A|---555---000---555---000---5555------|
D|---555---000---555---000---5555------|

Verse: (x2)
e|---------------------------------------------------------------------|
B|---------------------------------------------------------------------|
G|---------------------------------------------------------------------|
D|-0000000000000000-4444444444444444-9999999999999999-5555555555555555-|
A|-0000000000000000-4444444444444444-9999999999999999-5555555555555555-|
D|-0000000000000000-4444444444444444-9999999999999999-5555555555555555-|



Chorus: (x4)
e|---------------------------------------|
B|---------------------------------------|
G|---11111111---777777---2222---999999---|
D|----9-9-9-9---555555---0000---777777---|
A|----9-9-9-9---555555---0000---777777---|
D|----9-9-9-9---555555---0000---777777---|

Bridge:
e|-----------------------------------|
B|-----------------------------------|
G|-----------------------------------|
D|-55555555555555555555555555555/777-|
A|-55555555555555555555555555555/777-|
D|-55555555555555555555555555555/777-|


e|---------------------------------------|
B|---------------------------------------|
G|---11111111---777777---2222---999999---|
D|----9-9-9-9---555555---0000---777777---|
A|----9-9-9-9---555555---0000---777777---|
D|----9-9-9-9---555555---0000---777777---|

e|-----------------------------------|
B|-----------------------------------|
G|---11111111---777777---2222---9~---|
D|----9-9-9-9---555555---0000---7~---|
A|----9-9-9-9---555555---0000---7~---|
D|----9-9-9-9---555555---0000---7~---|

e|-----------------------------------------------|
B|-----------------------------------------------|
G|-----------------------------------------------|
D|-----------------------------------------------|
A|-----------------------------------------------|
D|---555-000-555-000-5555-555-000-555-000-5555---|


e|----------------------------------------|
B|----------------------------------------|
G|----------------------------------------|
D|-555-000-555-000-5555-555-000-5-5555555-|
A|-555-000-555-000-5555-555-000-5-5555555-|
D|-555-000-555-000-5555-555-000-5-5555555-|
                               


Chorus: (x4)
e|---------------------------------------|
B|---------------------------------------|
G|---11111111---777777---2222---999999---|
D|----9-9-9-9---555555---0000---777777---|
A|----9-9-9-9---555555---0000---777777---|
D|----9-9-9-9---555555---0000---777777---|


Outro:
e|-----------------------------------------------------------------|
B|-----------------------------------------------------------------|
G|-----------------------------------------------------------------|
D|---555---000---555---000---5555---555---000---555---000---5555---|
A|---555---000---555---000---5555---555---000---555---000---5555---|
D|---555---000---555---000---5555---555---000---555---000---5555---|


End On:                                                        
e|--------|                                                    
B|--------|                                              
G|--------|                                            
D|---0~---|                                      
A|---0~---|                                   
D|---0~---|  

=========================================================================

Rum Is For Drinking, Not For Burning Acoustic
Track Number 18

Guitar One

Intro:
e|----------------------------------------------------------|
B|----------------------------------------------------------|
G|-101010--999--121212--101010\99/10-101010--999-55555-10\9-|
D|--x-x-x--xxx--xxxxxx--x-x-x--xx--x--x-x-x--xxx-xxxxx--x-x-|
A|--8-8-8--777--101010--8-8-8-\77/-8--8-8-8--777-33333--8\7-|
D|----------------------------------------------------------|

e|--------------------------------------------------------|
B|--------------------------------------------------------|
G|-101010--999--121212--101010\99/10-101010--999-55555555-|
D|--x-x-x--xxx--xxxxxx--x-x-x--xx--x--x-x-x--xxx-xxxxxxxx-|
A|--8-8-8--777--101010--8-8-8-\77/-8--8-8-8--777-33333333-|
D|--------------------------------------------------------|


Verse:
e|----------------------------------|
B|----------------------------------|
G|----------------------------------|
D|---0~-----88-----33-----22--------|
A|---0~-----88-----33-----22--------|
D|---0~-----88-----33-----22--------|

e|----------------------------------|
B|----------------------------------|
G|----------------------------------|
D|---0~-----88-----33-----22--------|
A|---0~-----88-----33-----22--------|
D|---0~-----88-----33-----22--------|


Pre-Chorus:
e|----------------------------------------------|
B|----------------------------------------------|
G|----------------------------------------------|
D|---0000000000--888888888-----33-----22--------|
A|---0000000000--888888888-----33-----22--------|
D|---0000000000--888888888-----33-----22--------|

e|----------------------------------------------|
B|----------------------------------------------|
G|----------------------------------------------|
D|---0000000000--888888888-----33-----22--------|
A|---0000000000--888888888-----33-----22--------|
D|---0000000000--888888888-----33-----22--------|



Chorus: (x8)
e|--------------88-1010-----------------|
B|----------------------1010-8h10-------|
G|---77-1010-99-------------------------|
D|--------------------------------------|
A|--------------------------------------|
D|--------------------------------------|

Verse:
e|----------------------------------|
B|----------------------------------|
G|----------------------------------|
D|---0~-----88-----33-----22--------|
A|---0~-----88-----33-----22--------|
D|---0~-----88-----33-----22--------|

e|----------------------------------|
B|----------------------------------|
G|----------------------------------|
D|---0~-----88-----33-----22--------|
A|---0~-----88-----33-----22--------|
D|---0~-----88-----33-----22--------|

Pre-Chorus:
e|----------------------------------------------|
B|----------------------------------------------|
G|----------------------------------------------|
D|---0000000000--888888888-----33-----22--------|
A|---0000000000--888888888-----33-----22--------|
D|---0000000000--888888888-----33-----22--------|

e|----------------------------------------------|
B|----------------------------------------------|
G|----------------------------------------------|
D|---0000000000--888888888-----33-----22--------|
A|---0000000000--888888888-----33-----22--------|
D|---0000000000--888888888-----33-----22--------|



Chorus: (x8)
e|--------------88-1010-----------------|
B|----------------------1010-8h10-------|
G|---77-1010-99-------------------------|
D|--------------------------------------|
A|--------------------------------------|
D|--------------------------------------|


Bridge:
e|---------------------------------------------------------|
B|---------------------------------------------------------|
G|---10-1010/9\10--10-1010/9\10--14-1414/12\14--9-99/5\9---|
D|----x--x-x-x--x---x--x-x-x--x---x--x-x--x--x--x-xx-x-x---|
A|----8--8-8/7\-8---8--8-8/7\-8--12-1212/10\12--7-77/3\7---|
D|---------------------------------------------------------|

e|---------------------------------------------------------|
B|---------------------------------------------------------|
G|---10-1010/9\10--10-1010/9\10--14-1414/12\14--9999-5555--|
D|----x--x-x-x--x---x--x-x-x--x---x--x-x--x--x--xxxx-xxxx--|
A|----8--8-8/7\-8---8--8-8/7\-8--12-1212/10\12--7777-3333--|
D|---------------------------------------------------------|

Chorus: (x8)
e|--------------88-1010-----------------|
B|----------------------1010-8h10-------|
G|---77-1010-99-------------------------|
D|--------------------------------------|
A|--------------------------------------|
D|--------------------------------------|

Outro:
e|--------------88-1010-----------------|
B|----------------------1010-8h10-------|
G|---77-1010-99-------------------------| <-------(x4)      
D|--------------------------------------|
A|--------------------------------------|
D|--------------------------------------|

e|---88-1010------1313-1212-1010-8h10---|
B|-----------1010-----------------------|
G|--------------------------------------| <-------(x4)
D|--------------------------------------|
A|--------------------------------------|
D|--------------------------------------|

e|--------------88-1010-----------------|
B|----------------------1010-8h10-------|
G|---77-1010-99-------------------------| <-------(x3)      
D|--------------------------------------|
A|--------------------------------------|
D|--------------------------------------|


//////////////////////////////////////////\\\\\\\\\\\\\\\\\\\\\\\\\\\\\\\\\\

Guitar 2

Intro: (x2)
e|----------------------------------------------------|
B|----------------------------------------------------|
G|----------------------------------------------------|
D|---0-000000-0-000000--8-8888888-10-10101010101010---|
A|---0-000000-0-000000--8-8888888-10-10101010101010---|
D|---0-000000-0-000000--8-8888888-10-10101010101010---|

Verse:
e|----------------------------------|
B|----------------------------------|
G|----------------------------------|
D|---0~-----88-----33-----22--------|
A|---0~-----88-----33-----22--------|
D|---0~-----88-----33-----22--------|

e|----------------------------------|
B|----------------------------------|
G|----------------------------------|
D|---0~-----88-----33-----22--------|
A|---0~-----88-----33-----22--------|
D|---0~-----88-----33-----22--------|


Pre-Chorus:
e|----------------------------------------------------|
B|----------------------------------------------------|
G|----------------------------------------------------|
D|---0-000000-0-000000--8-8888888-10-10101010101010---|
A|---0-000000-0-000000--8-8888888-10-10101010101010---|
D|---0-000000-0-000000--8-8888888-10-10101010101010---|

e|----------------------------------------------|
B|----------------------------------------------|
G|----------------------------------------------|
D|---0000000000--888888888-----33-----22--------|
A|---0000000000--888888888-----33-----22--------|
D|---0000000000--888888888-----33-----22--------|


Chorus:(x2)
e|-------------------------------------------|
B|-------------------------------------------|
G|-------------------------------------------|
D|---0-000000-0-000000---8-888888-8-888888---|
A|---0-000000-0-000000---8-888888-8-888888---|
D|---0-000000-0-000000---8-888888-8-888888---|

e|---------------------------------------------------------|
B|---------------------------------------------------------|
G|---------------------------------------------------------|
D|---3-333333-3-333333---10-101010101010-10-101010101010---|
A|---3-333333-3-333333---10-101010101010-10-101010101010---|
D|---3-333333-3-333333---10-101010101010-10-101010101010---|

Verse:
e|----------------------------------|
B|----------------------------------|
G|----------------------------------|
D|---0~-----88-----33-----22--------|
A|---0~-----88-----33-----22--------|
D|---0~-----88-----33-----22--------|

e|----------------------------------|
B|----------------------------------|
G|----------------------------------|
D|---0~-----88-----33-----22--------|
A|---0~-----88-----33-----22--------|
D|---0~-----88-----33-----22--------|

Pre-Chorus:
e|----------------------------------------------------|
B|----------------------------------------------------|
G|----------------------------------------------------|
D|---0-000000-0-000000--8-8888888-10-10101010101010---|
A|---0-000000-0-000000--8-8888888-10-10101010101010---|
D|---0-000000-0-000000--8-8888888-10-10101010101010---|

e|----------------------------------------------|
B|----------------------------------------------|
G|----------------------------------------------|
D|---0000000000--888888888-----33-----22--------|
A|---0000000000--888888888-----33-----22--------|
D|---0000000000--888888888-----33-----22--------|


Chorus:(x2)
e|-------------------------------------------|
B|-------------------------------------------|
G|-------------------------------------------|
D|---0-000000-0-000000---8-888888-8-888888---|
A|---0-000000-0-000000---8-888888-8-888888---|
D|---0-000000-0-000000---8-888888-8-888888---|

e|---------------------------------------------------------|
B|---------------------------------------------------------|
G|---------------------------------------------------------|
D|---3-333333-3-333333---10-101010101010-10-101010101010---|
A|---3-333333-3-333333---10-101010101010-10-101010101010---|
D|---3-333333-3-333333---10-101010101010-10-101010101010---|

e|----------|
B|----------|
G|----------|
D|---0~~~---|  <-----Carries into the bridge...
A|---0~~~---|
D|---0~~~---|

Bridge:

e|----------------------------------------------------|
B|----------------------------------------------------|
G|----------------------------------------------------|
D|---0-000000-0-000000--8-8888888-10-10101010101010---|
A|---0-000000-0-000000--8-8888888-10-10101010101010---|
D|---0-000000-0-000000--8-8888888-10-10101010101010---|

e|----------------------------------------------|
B|----------------------------------------------|
G|----------------------------------------------|
D|---0000000000--888888888-----33-----22--------|
A|---0000000000--888888888-----33-----22--------|
D|---0000000000--888888888-----33-----22--------|

Chorus:(x2)
e|-------------------------------------------|
B|-------------------------------------------|
G|-------------------------------------------|
D|---0-000000-0-000000---8-888888-8-888888---|
A|---0-000000-0-000000---8-888888-8-888888---|
D|---0-000000-0-000000---8-888888-8-888888---|

e|---------------------------------------------------------|
B|---------------------------------------------------------|
G|---------------------------------------------------------|
D|---3-333333-3-333333---10-101010101010-10-101010101010---|
A|---3-333333-3-333333---10-101010101010-10-101010101010---|
D|---3-333333-3-333333---10-101010101010-10-101010101010---|


Outro:
e|--------------88-1010-----------------|
B|----------------------1010-8h10-------|
G|---77-1010-99-------------------------| <-------(x4)      
D|--------------------------------------|
A|--------------------------------------|
D|--------------------------------------|

e|---88-1010------1313-1212-1010-8h10---|
B|-----------1010-----------------------|
G|--------------------------------------| <-------(x4)
D|--------------------------------------|
A|--------------------------------------|
D|--------------------------------------|

e|--------------88-1010-----------------|
B|----------------------1010-8h10-------|
G|---77-1010-99-------------------------| <-------(x3)      
D|--------------------------------------|
A|--------------------------------------|
D|--------------------------------------|

e|----------------------------------------------------------|
B|---8--6--6666666666666666666666666666666666666666666666---|
G|---------7777777777777777777777777777777777777777777777---|
D|----------------------------------------------------------|
A|----------------------------------------------------------|
D|----------------------------------------------------------|


======================================================================

That's it, the whole Senses Fail - Let It Enfold You Special
Edition...
Any questions or comments email me at DCLine320@yahoo.com
SENSES FAIL RULES
Suggest correction
Creating personal tab
Creating personal tab
You can edit any tab online and save it as your Personal.

You can edit, replace or remove any tab part or add personal notes – all changes will be seen only by you.

Personal tabs can be accessed anytime from any device, even offline.
Learn more »
Give kudos to tab author, rate the tab!
1 2 3 4 5
comments
print report bad tab
guest
You may want to rate the tab now too:
select rating
Wanna post a correction for this tab? Suggest correction