Oops, an error
Loading. Please wait.

Priest And The Matador bass

version 1
version 1

Whole song

Interactive

2,973 views 6 this week
1 commentread comment
1 2 3 4 5
x 4
add to favorites
×
Save as Personal and add changes to this tab that will be seen only by you. Learn more ›
×
You can save this tab as Personal to edit and correct it or add notes. All changes will be seen only by you. Learn more »
launch autoscroll
font size
0
reset
guitar tuner
edit
Autoscroll
slow
fast
+/-
esc
set tempo
stop
Author
Tabbed by: Valerie L
e-mail: iloled@yahoo.com

at (0:35) you can start playing this

G|-----------------------------------------------------------------------|
D|-----------------------------------------------------------------------|
A|-3-3-3-3-3-3-3-3-2-2-2-2-2-2-2-2-------------------7-7-7-7-7-7-7-7-----|
D|----------------------------------7-7-7-7-7-7-7-7----------------------| x2

then
G|-----------------------------------------------------------------|
D|-----------------------------------------------------------------|
A|-0-0-0-0-0-0-0-0-3-3-3-3-3-3-3-3-----------------5-5-5-5-5-5-5-5-|
D|---------------------------------5-5-5-5-5-5-5-5-----------------| x2


Verse
G|-----------------------------------------------------------------|
D|-------------------------------------------------2-2-2-2-2-2-2-2-|
A|-3-3-3-3-3-3-3-3-2-2-2-2-2-2-2-2-0-0-0-0-0-0-0-0-----------------|
D|-----------------------------------------------------------------| x2

G|-----------------------------------------------------------------|
D|-----------------------------------------------------------------|
A|-0-0-0-0-0-0-0-0-3-3-3-3-3-3-3-3-----------------5-5-5-5-5-5-5-5-|
D|---------------------------------5-5-5-5-5-5-5-5-----------------| x2

repeat first part of verse twice and then
Chorus:
G|-----------------------------------------------------------------|
D|-------------------------------------------------2-2-2-2-2-2-2-2-|
A|-3-3-3-3-3-3-3-3-2-2-2-2-2-2-2-2-0-0-0-0-0-0-0-0-----------------|
D|-----------------------------------------------------------------| x2

after:
G|------------------------------------------------------------------------------|
D|------------------------------------------------------------------------------|
A|-0-0-0-0-0-0-0-0-3-3-3-3-3-3-3-3-------------------------------5-5-5-5-5-5-5--|
D|---------------------------------5-5-5-5-5-5-5-5-0-0-0-0-0-0-0----------------| 

the rest of the song is the same riff. 
enjoy!



            
            
Suggest correction
Creating personal tab
Creating personal tab
You can edit any tab online and save it as your Personal.

You can edit, replace or remove any tab part or add personal notes – all changes will be seen only by you.

Personal tabs can be accessed anytime from any device, even offline.
Learn more »
comments
print report bad tab
1 comment total.
0 reply
JoNnHannah 31 Jan 27, 2007 02:32 AM

thanks bro

guest
You may want to rate the tab now too:
select rating
Wanna post a correction for this tab? Suggest correction