Oops, an error
Loading. Please wait.

Priest And The Matador tab

version 3
version 3

Whole song

Interactive

1,297 views 1 this week
1 commentread comment
1 2 3 4 5
1 last vote to show rating
add to favorites
×
Save as Personal and add changes to this tab that will be seen only by you. Learn more ›
×
You can save this tab as Personal to edit and correct it or add notes. All changes will be seen only by you. Learn more »
launch autoscroll
font size
0
reset
how to read this tab
guitar tuner
edit
Autoscroll
slow
fast
+/-
esc
set tempo
stop
----------------------------------------------------------------------------
                  Priest And The Matador - Senses Fail
----------------------------------------------------------------------------




Guitar I -(D A D G B E) 'Clean'
Guitar II - (D A D G B E) 'Clean'
Guitar III - (D A D G B E) 'Distortion'
Guitar IV -  (D A D G B E) 'Distortion'
Guitar V - (D A D G B E) 'Acoustic'
Guitar VI - (D A D G B E) 'Acoustic'





Guitar I:   
E||----------12----------12----------|----------15----------15----------|
B||------13----------13----------13--|------13----------13----------13--|
G||--12----------12----------12------|--12----------12----------12------|
D||----------------------------------|----------------------------------|
A||----------------------------------|----------------------------------|
D||----------------------------------|----------------------------------|


  
----------12----------12----------|----------15----------15----------|
------13----------13----------13--|------13----------13----------13--|
--12----------12----------12------|--12----------12----------12------|
----------------------------------|----------------------------------|
----------------------------------|----------------------------------|
----------------------------------|----------------------------------|


   
|-----------12----------12----------|----------15----------15----------|
|-------13----------13----------13--|------13----------13----------13--|
|---12----------12----------12------|--12----------12----------12------|
|-----------------------------------|----------------------------------|
|-----------------------------------|----------------------------------|
|-----------------------------------|----------------------------------|


            
----------12----------12----------|----------15----------15-----------|
------13----------13----------13--|------13----------13----------13---|
--12----------12----------12------|--12----------12----------12-------|
----------------------------------|-----------------------------------|
----------------------------------|-----------------------------------|
----------------------------------|-----------------------------------|


                              
|---------12----------12-----------|
|------13----------13----------13--|
|--12----------12----------12------|
|----------------------------------|
|----------------------------------|
|----------------------------------|

 
----------15----------15----------|----------12----------12----------|
------13----------13----------13--|------13----------13----------13--|
--12----------12----------12------|--12----------12----------12------|
----------------------------------|----------------------------------|
----------------------------------|----------------------------------|
----------------------------------|----------------------------------|


            
----------15----------15-----------||----------15----------15----------|
------13----------13----------13---||------13----------13----------13--|
--12----------12----------12------*||--12----------12----------12------|
----------------------------------*||----------------------------------|
-----------------------------------||----------------------------------|
-----------------------------------||----------------------------------|


                             
|----------12----------12----------|
|------13----------13----------13--|
|--12----------12----------12------|
|----------------------------------|
|----------------------------------|
|----------------------------------|


   E   E   E   E   E   E   E   E      E   E   E   E   E   E   E   E   
----------15----------15----------|----------12----------12----------|
------13----------13----------13--|------13----------13----------13--|
--12----------12----------12------|--12----------12----------12------|
----------------------------------|----------------------------------|
----------------------------------|----------------------------------|
----------------------------------|----------------------------------|
                                        
----------15----------15---------*|
------13----------13----------13-*|
--12----------12----------12-----*|
---------------------------------*|
---------------------------------*|






Guitar II:

E||-----------------20----------20----------|
B||--15h-17p-15h-17-----17--15------17--15--|
G||-----------------------------------------|
D||-----------------------------------------|
A||-----------------------------------------|
D||-----------------------------------------|

 
-----------------19----------19----------|
--15h-17p-15h-17-----17--15------17--15--|
-----------------------------------------|
-----------------------------------------|
-----------------------------------------|
-----------------------------------------|


  
-----------------20----------20----------|
--15h-17p-15h-17-----17--15------17--15--|
-----------------------------------------|
-----------------------------------------|
-----------------------------------------|
-----------------------------------------|


    
-----------------19----------19----------|
--15h-17p-15h-17-----17--15------17--15--|
-----------------------------------------|
-----------------------------------------|
-----------------------------------------|
-----------------------------------------|


    
|------------------20----------20----------|
|---15h-17p-15h-17-----17--15------17--15--|
|*-----------------------------------------|
|*-----------------------------------------|
|------------------------------------------|
|------------------------------------------|


  
-----------------19----------19----------|
--15h-17p-15h-17-----17--15------17--15--|
-----------------------------------------|
-----------------------------------------|
-----------------------------------------|
-----------------------------------------|


 
-----------------17----------17----------|
--15h-17p-15h-17-----17--15------17--15--|
-----------------------------------------|
-----------------------------------------|
-----------------------------------------|
-----------------------------------------|


E                                     
-----------------19----------19-----------|
--15h-17p-15h-17-----17--15------17--15---|
------------------------------------------|
------------------------------------------|
------------------------------------------|
------------------------------------------|


  
|--------------20----------20----------|--------------19----------19-------|
|--15-17-15-17-----17--15------17--15--|--15-17-15-17-----17--15-----17-15-|
|--------------------------------------|-----------------------------------|
|--------------------------------------|-----------------------------------|
|--------------------------------------|-----------------------------------|
|--------------------------------------|-----------------------------------|


--------------17----------17----------|-------------19----------19---------|
--15-17-15-17-----17--15------17--15--|-15-17-15-17-----17--15------17--15-|
--------------------------------------|------------------------------------|
--------------------------------------|------------------------------------|
--------------------------------------|------------------------------------|
--------------------------------------|------------------------------------|


                                    
--------------19----------19----------|
--15-17-15-17-----17--15------17--15--|
--------------------------------------|
--------------------------------------|
--------------------------------------|
--------------------------------------|


   
-----------------20----------20----------|
--15h-17p-15h-17-----17--15------17--15--|
-----------------------------------------|
-----------------------------------------|
-----------------------------------------|
-----------------------------------------|


    
-----------------19----------19----------|
--15h-17p-15h-17-----17--15------17--15--|
-----------------------------------------|
-----------------------------------------|
-----------------------------------------|
-----------------------------------------|


  
-----------------20----------20----------|
--15h-17p-15h-17-----17--15------17--15--|
-----------------------------------------|
-----------------------------------------|
-----------------------------------------|
-----------------------------------------|

                                      
-----------------19----------19---------*|
--15h-17p-15h-17-----17--15------17--15-*|
----------------------------------------*|
----------------------------------------*|
----------------------------------------*|
----------------------------------------*|



                                                            
Guitar III:
    
|-----------------------------|-----------------------------------|
|-----------------------------|-----------------------------------|
|*----------------------------|-----------------------------------|
|*--7--7--7--7--7--7--7--7-10-|--10--10--10--10--10--10--10--10-5-|
|---7--7--7--7--7--7--7--7-10-|--10--10--10--10--10--10--10--10-5-|
|---7--7--7--7--7--7--7--7-10-|--10--10--10--10--10--10--10--10-5-|

   
---------------------------|---------------------------||
---------------------------|---------------------------||
---------------------------|--------------------------*||
--5--5--5--5--5--5--5--5-0-|--0--0--0--0--0--0--0--0--*||
--5--5--5--5--5--5--5--5-0-|--0--0--0--0--0--0--0--0---||
--5--5--5--5--5--5--5--5-0-|--0--0--0--0--0--0--0--0---||


   
--------------------------|-------|-------|-------|-----------------------|
--------------------------|-------|-------|-------|-----------------------|
--------------------------|-------|-------|-------|---------------5s--12--|
--0--0--0--0--0--0--0--0--|-------|-------|-------|-----------------------|
--0--0--0--0--0--0--0--0--|-------|-------|-------|---------------3s--10--|
--0--0--0--0--0--0--0--0--|-------|-------|-------|-----------------------|


    
--------------------------|-----------------------------------|
--------------------------|-----------------------------------|
--10----9--9------5s--12--|--10----12s---14-14-14-14-14-12----|
--------------------------|-----------------------------------|
---8----7--7------3s--10--|---8----10s---12-12-12-12-12-10----|
--------------------------|-----------------------------------|


  
-------------------------------|----------------------------|
-------------------------------|----------------------------|
--10-9-7--7--7--7-9-10--9---/5-|--7----5s-4-2----L--5s--12--|
-------------------------------|----------------------------|
---8-7-5--5--5--5-7--8--7---/3-|--5----3s-2-0----L--3s--10--|
-------------------------------|----------------------------|


  
--------------------------|--------------------------------------|
--------------------------|--------------------------------------|
--10----9--9------5s--12--|--10----12-14-12-14-12-14-12--12--12--|
--------------------------|--------------------------------------|
---8----7--7------3s--10--|---8----10-12-10-12-10-12-10--10--10--|
--------------------------|--------------------------------------|

--------------------------------------|
--------------------------------------|
--16-17-16--16--16--16-17-19--19--19--|
--------------------------------------|
--14-15-14--14--14--14-15-17--17--17--|
--------------------------------------|


    
-----------------------------------------------|
--18-18-18-17-15-15-15-13-15-17-18-17-15-13-L--|
-----------------------------------------------|
--15-15-15-14-12-12-12-10-12-14-15-14-12-10-L--|
-----------------------------------------------|
-----------------------------------------------|


      
|-------------------------------------|------------------------------------|
|-------------------------------------|------------------------------------|
|*--14--14--14--14--14--14--14--14-17-|--17--17--17--17--17--17--17--17-12-|
|*------------------------------------|------------------------------------|
|---12--12--12--12--12--12--12--12-15-|--15--15--15--15--15--15--15--15-10-|
|-------------------------------------|------------------------------------|


      
-----------------------------------|-----------------------------||
-----------------------------------|-----------------------------||
--12--12--12--12--12--12--12--12-7-|--7--7--7s--5--7--7--7s--9--*||
-----------------------------------|----------------------------*||
--10--10--10--10--10--10--10--10-5-|--5--5--5s--3--5--5--5s--7---||
-----------------------------------|-----------------------------||


     
----------------------------||---------------------------|
----------------------------||---------------------------|
--7--7--7s--5--7--7--7s--9--||*--9--9--9--9--9--9--9--9--|
----------------------------||*--------------------------|
--5--5--5s--3--5--5--5s--7--||---7--7--7--7--7--7--7--7--|
----------------------------||---------------------------|


                           4x     
----------------------------||---------------------------|
----------------------------||---------------------------|
--7--7--7--7--5--5--5s--7--*||--7--7--7--7--5--5--5s--7--|
---------------------------*||---------------------------|
--5--5--5--5--3--3--3s--5---||--5--5--5--5--3--3--3s--5--|
----------------------------||---------------------------|


  
-----------------------------|-----------------------------|
-----------------------------|-----------------------------|
--7s----12--10s--9--9--9--9--|--7s----12--10s--9--9--9--9--|
-----------------------------|-----------------------------|
--5s----10---8s--7--7--7--7--|--5s----10---8s--7--7--7--7--|
-----------------------------|-----------------------------|



-----------------------------|----------------------------------|
-----------------------------|----------------------------------|
--7s----12--10s--9--9--9--9--|--14--14--14--14--12--12--12--12--|
-----------------------------|----------------------------------|
--5s----10---8s--7--7--7--7--|--12--12--12--12--10--10--10--10--|
-----------------------------|----------------------------------|


-----------------------------|-----------------------------|
-----------------------------|-----------------------------|
--7s----12--10s--9--9--9--9--|--7s----12--10s--9--9--9--9--|
-----------------------------|-----------------------------|
--5s----10---8s--7--7--7--7--|--5s----10---8s--7--7--7--7--|
-----------------------------|-----------------------------|


   
-----------------------------|----------------------------------|
-----------------------------|----------------------------------|
--7s----12--10s--9--9--9--9--|--14--14--14--14--12--12--12--12--|
-----------------------------|----------------------------------|
--5s----10---8s--7--7--7--7--|--12--12--12--12--10--10--10--10--|
-----------------------------|----------------------------------|



-----------------------------|-----------------------------|
-----------------------------|-----------------------------|
--7s----12--10s--9--9--9--9--|--7s----12--10s--9--9--9--9--|
-----------------------------|-----------------------------|
--5s----10---8s--7--7--7--7--|--5s----10---8s--7--7--7--7--|
-----------------------------|-----------------------------|



-----------------------------|----------------------------------|
-----------------------------|----------------------------------|
--7s----12--10s--9--9--9--9--|--14--14--14--14--12--12--12--12--|
-----------------------------|----------------------------------|
--5s----10---8s--7--7--7--7--|--12--12--12--12--10--10--10--10--|
-----------------------------|----------------------------------|


-----------------------------|-----------------------------|
-----------------------------|-----------------------------|
--7s----12--10s--9--9--9--9--|--7s----12--10s--9--9--9--9--|
-----------------------------|-----------------------------|
--5s----10---8s--7--7--7--7--|--5s----10---8s--7--7--7--7--|
-----------------------------|-----------------------------|

   
-----------------------------|----------------------------------|
-----------------------------|----------------------------------|
--7s----12--10s--9--9--9--9--|--14--14--14--14--12--12--12--12--|
-----------------------------|----------------------------------|
--5s----10---8s--7--7--7--7--|--12--12--12--12--10--10--10--10--|
-----------------------------|----------------------------------|


  
-----------------------------|-----------------------------|
-----------------------------|-----------------------------|
--7s----12--10s--9--9--9--9--|--7s----12--10s--9--9--9--9--|
-----------------------------|-----------------------------|
--5s----10---8s--7--7--7--7--|--5s----10---8s--7--7--7--7--|
-----------------------------|-----------------------------|


               
-----------------------------|---------------------------------*|
-----------------------------|---------------------------------*|
--7s----12--10s--9--9--9--9--|--14--14--14--14--12--12--12--12-*|
-----------------------------|---------------------------------*|
--5s----10---8s--7--7--7--7--|--12--12--12--12--10--10--10--10-*|
-----------------------------|---------------------------------*|



Guitar IV
------------------------------||-----------------------------|
------------------------------||-----------------------------|
------------------------------||*----------------------------|
---------------<>0--<>0--<>0--||*--7--7--7--7--7--7--7--7-10-|
---------------<>0--<>0--<>0--||---7--7--7--7--7--7--7--7-10-|
---------------<>0--<>0--<>0--||---7--7--7--7--7--7--7--7-10-|


 
-----------------------------------|---------------------------|
-----------------------------------|---------------------------|
-----------------------------------|---------------------------|
--10--10--10--10--10--10--10--10-5-|--5--5--5--5--5--5--5--5-0-|
--10--10--10--10--10--10--10--10-5-|--5--5--5--5--5--5--5--5-0-|
--10--10--10--10--10--10--10--10-5-|--5--5--5--5--5--5--5--5-0-|


                           
---------------------------||--------------------------|
---------------------------||--------------------------|
--------------------------*||--------------------------|
--0--0--0--0--0--0--0--0--*||--0--0--0--0--0--0--0--0--|
--0--0--0--0--0--0--0--0---||--0--0--0--0--0--0--0--0--|
--0--0--0--0--0--0--0--0---||--0--0--0--0--0--0--0--0--|


         
-------|----------------------------|-----------------------------------|
-------|----------------------------|-----------------------------------|
-------|----------------------------|-----------------------------------|
-------|--7--7--7--7--7--7--7--7-10-|--10--10--10--10--10--10--10--10-5-|
-------|--7--7--7--7--7--7--7--7-10-|--10--10--10--10--10--10--10--10-5-|
-------|--7--7--7--7--7--7--7--7-10-|--10--10--10--10--10--10--10--10-5-|


  
---------------------------|--------------------------|
---------------------------|--------------------------|
---------------------------|--------------------------|
--5--5--5--5--5--5--5--5-0-|--0--0--0--0--0--0--0--0--|
--5--5--5--5--5--5--5--5-0-|--0--0--0--0--0--0--0--0--|
--5--5--5--5--5--5--5--5-0-|--0--0--0--0--0--0--0--0--|


----------------------------|-----------------------------------|
----------------------------|-----------------------------------|
----------------------------|-----------------------------------|
--7--7--7--7--7--7--7--7-10-|--10--10--10--10--10--10--10--10-5-|
--7--7--7--7--7--7--7--7-10-|--10--10--10--10--10--10--10--10-5-|
--7--7--7--7--7--7--7--7-10-|--10--10--10--10--10--10--10--10-5-|


   
---------------------------|--------------------------|
---------------------------|--------------------------|
---------------------------|--------------------------|
--5--5--5--5--5--5--5--5-0-|--0--0--0--0--0--0--0--0--|
--5--5--5--5--5--5--5--5-0-|--0--0--0--0--0--0--0--0--|
--5--5--5--5--5--5--5--5-0-|--0--0--0--0--0--0--0--0--|


 
|-----------------------------|-----------------------------------|
|-----------------------------|-----------------------------------|
|*----------------------------|-----------------------------------|
|*--7--7--7--7--7--7--7--7-10-|--10--10--10--10--10--10--10--10-5-|
|---7--7--7--7--7--7--7--7-10-|--10--10--10--10--10--10--10--10-5-|
|---7--7--7--7--7--7--7--7-10-|--10--10--10--10--10--10--10--10-5-|


    
---------------------------|---------------------------||
---------------------------|---------------------------||
---------------------------|--------------------------*||
--5--5--5--5--5--5--5--5-0-|--0--0--0--0--0--0--0--0--*||
--5--5--5--5--5--5--5--5-0-|--0--0--0--0--0--0--0--0---||
--5--5--5--5--5--5--5--5-0-|--0--0--0--0--0--0--0--0---||


   
--------------------------||-----------------------------------|
--------------------------||-----------------------------------|
--------------------------||*----------------------------------|
--0--0--0--0--0--0--0--0--||*--10--10--10--10--10--10--10--10--|
--0--0--0--0--0--0--0--0--||---10--10--10--10--10--10--10--10--|
--0--0--0--0--0--0--0--0--||---10--10--10--10--10--10--10--10--|


                           4x      
---------------------------||--------------------------|
---------------------------||--------------------------|
--------------------------*||--------------------------|
--9--9--9--9--9--9--9--9--*||--9--9--9--9--9--9--9--9--|
--9--9--9--9--9--9--9--9---||--9--9--9--9--9--9--9--9--|
--9--9--9--9--9--9--9--9---||--9--9--9--9--9--9--9--9--|


  
----------------------------------|--------------------------|
----------------------------------|--------------------------|
----------------------------------|--------------------------|
--10--10--10--10--10--10--10--10--|--9--9--9--9--9--9--9--9--|
--10--10--10--10--10--10--10--10--|--9--9--9--9--9--9--9--9--|
--10--10--10--10--10--10--10--10--|--9--9--9--9--9--9--9--9--|

  
----------------------------------|--------------------------|
----------------------------------|--------------------------|
----------------------------------|--------------------------|
--10--10--10--10--10--10--10--10--|--9--9--9--9--9--9--9--9--|
--10--10--10--10--10--10--10--10--|--9--9--9--9--9--9--9--9--|
--10--10--10--10--10--10--10--10--|--9--9--9--9--9--9--9--9--|


    
----------------------------------|--------------------------|
----------------------------------|--------------------------|
----------------------------------|--------------------------|
--10--10--10--10--10--10--10--10--|--9--9--9--9--9--9--9--9--|
--10--10--10--10--10--10--10--10--|--9--9--9--9--9--9--9--9--|
--10--10--10--10--10--10--10--10--|--9--9--9--9--9--9--9--9--|


      
----------------------------------|--------------------------|
----------------------------------|--------------------------|
----------------------------------|--------------------------|
--10--10--10--10--10--10--10--10--|--9--9--9--9--9--9--9--9--|
--10--10--10--10--10--10--10--10--|--9--9--9--9--9--9--9--9--|
--10--10--10--10--10--10--10--10--|--9--9--9--9--9--9--9--9--|


    
----------------------------------|--------------------------|
----------------------------------|--------------------------|
----------------------------------|--------------------------|
--10--10--10--10--10--10--10--10--|--9--9--9--9--9--9--9--9--|
--10--10--10--10--10--10--10--10--|--9--9--9--9--9--9--9--9--|
--10--10--10--10--10--10--10--10--|--9--9--9--9--9--9--9--9--|



----------------------------------|--------------------------|
----------------------------------|--------------------------|
----------------------------------|--------------------------|
--10--10--10--10--10--10--10--10--|--9--9--9--9--9--9--9--9--|
--10--10--10--10--10--10--10--10--|--9--9--9--9--9--9--9--9--|
--10--10--10--10--10--10--10--10--|--9--9--9--9--9--9--9--9--|


 
----------------------------------|--------------------------|
----------------------------------|--------------------------|
----------------------------------|--------------------------|
--10--10--10--10--10--10--10--10--|--9--9--9--9--9--9--9--9--|
--10--10--10--10--10--10--10--10--|--9--9--9--9--9--9--9--9--|
--10--10--10--10--10--10--10--10--|--9--9--9--9--9--9--9--9--|


    
----------------------------------|--------------------------|
----------------------------------|--------------------------|
----------------------------------|--------------------------|
--10--10--10--10--10--10--10--10--|--9--9--9--9--9--9--9--9--|
--10--10--10--10--10--10--10--10--|--9--9--9--9--9--9--9--9--|
--10--10--10--10--10--10--10--10--|--9--9--9--9--9--9--9--9--|


      
----------------------------------|--------------------------|
----------------------------------|--------------------------|
----------------------------------|--------------------------|
--10--10--10--10--10--10--10--10--|--9--9--9--9--9--9--9--9--|
--10--10--10--10--10--10--10--10--|--9--9--9--9--9--9--9--9--|
--10--10--10--10--10--10--10--10--|--9--9--9--9--9--9--9--9--|


                   
----------------------------------|-------------------------*|
----------------------------------|-------------------------*|
----------------------------------|-------------------------*|
--10--10--10--10--10--10--10--10--|--9--9--9--9--9--9--9--9-*|
--10--10--10--10--10--10--10--10--|--9--9--9--9--9--9--9--9-*|
--10--10--10--10--10--10--10--10--|--9--9--9--9--9--9--9--9-*|







Guitar V
-----------------------------|-----------------------------------|
-----------------------------|-----------------------------------|
*----------------------------|-----------------------------------|
*--7--7--7--7--7--7--7--7-10-|--10--10--10--10--10--10--10--10-5-|
---7--7--7--7--7--7--7--7-10-|--10--10--10--10--10--10--10--10-5-|
---7--7--7--7--7--7--7--7-10-|--10--10--10--10--10--10--10--10-5-|



---------------------------|---------------------------||
---------------------------|---------------------------||
---------------------------|--------------------------*||
--5--5--5--5--5--5--5--5-0-|--0--0--0--0--0--0--0--0--*||
--5--5--5--5--5--5--5--5-0-|--0--0--0--0--0--0--0--0---||
--5--5--5--5--5--5--5--5-0-|--0--0--0--0--0--0--0--0---||


--------------------------||-----------------------------|
--------------------------||-----------------------------|
--------------------------||*----------------------------|
--0--0--0--0--0--0--0--0--||*--7--7--7--7--7--7--7--7-10-|
--0--0--0--0--0--0--0--0--||---7--7--7--7--7--7--7--7-10-|
--0--0--0--0--0--0--0--0--||---7--7--7--7--7--7--7--7-10-|


-----------------------------------|---------------------------|
-----------------------------------|---------------------------|
-----------------------------------|---------------------------|
--10--10--10--10--10--10--10--10-5-|--5--5--5--5--5--5--5--5-0-|
--10--10--10--10--10--10--10--10-5-|--5--5--5--5--5--5--5--5-0-|
--10--10--10--10--10--10--10--10-5-|--5--5--5--5--5--5--5--5-0-|

  
-----------------------------------||----------------------------------|
-----------------------------------||----------------------------------|
----------------------------------*||----------------------------------|
--12--12--12--12--12--12--12--12--*||--12--12--12--12--12--12--12--12--|
--12--12--12--12--12--12--12--12---||--12--12--12--12--12--12--12--12--|
--12--12--12--12--12--12--12--12---||--12--12--12--12--12--12--12--12--|


   
------------------------------------|---------------------------|
------------------------------------|---------------------------|
------------------------------------|---------------------------|
--10--10--10--10--10--10--10--10-10-|--9--9--9--9--9--9--9--9-9-|
--10--10--10--10--10--10--10--10-10-|--9--9--9--9--9--9--9--9-9-|
--10--10--10--10--10--10--10--10-10-|--9--9--9--9--9--9--9--9-9-|


  
------------------------------------|---------------------------|
------------------------------------|---------------------------|
------------------------------------|---------------------------|
--10--10--10--10--10--10--10--10-10-|--9--9--9--9--9--9--9--9-9-|
--10--10--10--10--10--10--10--10-10-|--9--9--9--9--9--9--9--9-9-|
--10--10--10--10--10--10--10--10-10-|--9--9--9--9--9--9--9--9-9-|


    
------------------------------------|---------------------------|
------------------------------------|---------------------------|
------------------------------------|---------------------------|
--10--10--10--10--10--10--10--10-10-|--9--9--9--9--9--9--9--9-9-|
--10--10--10--10--10--10--10--10-10-|--9--9--9--9--9--9--9--9-9-|
--10--10--10--10--10--10--10--10-10-|--9--9--9--9--9--9--9--9-9-|


 
------------------------------------|---------------------------|
------------------------------------|---------------------------|
------------------------------------|---------------------------|
--10--10--10--10--10--10--10--10-10-|--9--9--9--9--9--9--9--9-9-|
--10--10--10--10--10--10--10--10-10-|--9--9--9--9--9--9--9--9-9-|
--10--10--10--10--10--10--10--10-10-|--9--9--9--9--9--9--9--9-9-|


------------------------------------|---------------------------|
------------------------------------|---------------------------|
------------------------------------|---------------------------|
--10--10--10--10--10--10--10--10-10-|--9--9--9--9--9--9--9--9-9-|
--10--10--10--10--10--10--10--10-10-|--9--9--9--9--9--9--9--9-9-|
--10--10--10--10--10--10--10--10-10-|--9--9--9--9--9--9--9--9-9-|


 
------------------------------------|---------------------------|
------------------------------------|---------------------------|
------------------------------------|---------------------------|
--10--10--10--10--10--10--10--10-10-|--9--9--9--9--9--9--9--9-9-|
--10--10--10--10--10--10--10--10-10-|--9--9--9--9--9--9--9--9-9-|
--10--10--10--10--10--10--10--10-10-|--9--9--9--9--9--9--9--9-9-|


 
------------------------------------|---------------------------|
------------------------------------|---------------------------|
------------------------------------|---------------------------|
--10--10--10--10--10--10--10--10-10-|--9--9--9--9--9--9--9--9-9-|
--10--10--10--10--10--10--10--10-10-|--9--9--9--9--9--9--9--9-9-|
--10--10--10--10--10--10--10--10-10-|--9--9--9--9--9--9--9--9-9-|


  
------------------------------------|---------------------------|
------------------------------------|---------------------------|
------------------------------------|---------------------------|
--10--10--10--10--10--10--10--10-10-|--9--9--9--9--9--9--9--9-9-|
--10--10--10--10--10--10--10--10-10-|--9--9--9--9--9--9--9--9-9-|
--10--10--10--10--10--10--10--10-10-|--9--9--9--9--9--9--9--9-9-|


  
------------------------------------|---------------------------|
------------------------------------|---------------------------|
------------------------------------|---------------------------|
--10--10--10--10--10--10--10--10-10-|--9--9--9--9--9--9--9--9-9-|
--10--10--10--10--10--10--10--10-10-|--9--9--9--9--9--9--9--9-9-|
--10--10--10--10--10--10--10--10-10-|--9--9--9--9--9--9--9--9-9-|


  ------------------------------------|---------------------------|
------------------------------------|---------------------------|
------------------------------------|---------------------------|
--10--10--10--10--10--10--10--10-10-|--9--9--9--9--9--9--9--9-9-|
--10--10--10--10--10--10--10--10-10-|--9--9--9--9--9--9--9--9-9-|
--10--10--10--10--10--10--10--10-10-|--9--9--9--9--9--9--9--9-9-|


   
------------------------------------|---------------------------|
------------------------------------|---------------------------|
------------------------------------|---------------------------|
--10--10--10--10--10--10--10--10-10-|--9--9--9--9--9--9--9--9-9-|
--10--10--10--10--10--10--10--10-10-|--9--9--9--9--9--9--9--9-9-|
--10--10--10--10--10--10--10--10-10-|--9--9--9--9--9--9--9--9-9-|


   
------------------------------------|---------------------------|
------------------------------------|---------------------------|
------------------------------------|---------------------------|
--10--10--10--10--10--10--10--10-10-|--9--9--9--9--9--9--9--9-9-|
--10--10--10--10--10--10--10--10-10-|--9--9--9--9--9--9--9--9-9-|
--10--10--10--10--10--10--10--10-10-|--9--9--9--9--9--9--9--9-9-|


    
------------------------------------|---------------------------|
------------------------------------|---------------------------|
------------------------------------|---------------------------|
--10--10--10--10--10--10--10--10-10-|--9--9--9--9--9--9--9--9-9-|
--10--10--10--10--10--10--10--10-10-|--9--9--9--9--9--9--9--9-9-|
--10--10--10--10--10--10--10--10-10-|--9--9--9--9--9--9--9--9-9-|


    
------------------------------------|---------------------------|
------------------------------------|---------------------------|
------------------------------------|---------------------------|
--10--10--10--10--10--10--10--10-10-|--9--9--9--9--9--9--9--9-9-|
--10--10--10--10--10--10--10--10-10-|--9--9--9--9--9--9--9--9-9-|
--10--10--10--10--10--10--10--10-10-|--9--9--9--9--9--9--9--9-9-|


    
------------------------------------|---------------------------|
------------------------------------|---------------------------|
------------------------------------|---------------------------|
--10--10--10--10--10--10--10--10-10-|--9--9--9--9--9--9--9--9-9-|
--10--10--10--10--10--10--10--10-10-|--9--9--9--9--9--9--9--9-9-|
--10--10--10--10--10--10--10--10-10-|--9--9--9--9--9--9--9--9-9-|


                   
-------------------*||
-------------------*||
-------------------*||
--10---------------*||
--10---------------*||
--10---------------*||








Guitar VI:

-----------------------------|-----------------------------------|
-----------------------------|-----------------------------------|
*----------------------------|-----------------------------------|
*--7--7--7--7--7--7--7--7-10-|--10--10--10--10--10--10--10--10-5-|
---7--7--7--7--7--7--7--7-10-|--10--10--10--10--10--10--10--10-5-|
---7--7--7--7--7--7--7--7-10-|--10--10--10--10--10--10--10--10-5-|


    
---------------------------|---------------------------||
---------------------------|---------------------------||
---------------------------|--------------------------*||
--5--5--5--5--5--5--5--5-0-|--0--0--0--0--0--0--0--0--*||
--5--5--5--5--5--5--5--5-0-|--0--0--0--0--0--0--0--0---||
--5--5--5--5--5--5--5--5-0-|--0--0--0--0--0--0--0--0---||


--------------------------||-----------------------------|
--------------------------||-----------------------------|
--------------------------||*----------------------------|
--0--0--0--0--0--0--0--0--||*--7--7--7--7--7--7--7--7-10-|
--0--0--0--0--0--0--0--0--||---7--7--7--7--7--7--7--7-10-|
--0--0--0--0--0--0--0--0--||---7--7--7--7--7--7--7--7-10-|

  
-----------------------------------|---------------------------|
-----------------------------------|---------------------------|
-----------------------------------|---------------------------|
--10--10--10--10--10--10--10--10-5-|--5--5--5--5--5--5--5--5-0-|
--10--10--10--10--10--10--10--10-5-|--5--5--5--5--5--5--5--5-0-|
--10--10--10--10--10--10--10--10-5-|--5--5--5--5--5--5--5--5-0-|


 
-----------------------------------||----------------------------------|
-----------------------------------||----------------------------------|
----------------------------------*||----------------------------------|
--12--12--12--12--12--12--12--12--*||--12--12--12--12--12--12--12--12--|
--12--12--12--12--12--12--12--12---||--12--12--12--12--12--12--12--12--|
--12--12--12--12--12--12--12--12---||--12--12--12--12--12--12--12--12--|



------------------------------------|---------------------------|
------------------------------------|---------------------------|
--10--10--10--10--10--10--10--10-10-|--9--9--9--9--9--9--9--9-9-|
--10--10--10--10--10--10--10--10-10-|--9--9--9--9--9--9--9--9-9-|
--10--10--10--10--10--10--10--10-10-|--9--9--9--9--9--9--9--9-9-|


 
------------------------------------|---------------------------|
------------------------------------|---------------------------|
------------------------------------|---------------------------|
--10--10--10--10--10--10--10--10-10-|--9--9--9--9--9--9--9--9-9-|
--10--10--10--10--10--10--10--10-10-|--9--9--9--9--9--9--9--9-9-|
--10--10--10--10--10--10--10--10-10-|--9--9--9--9--9--9--9--9-9-|


 
------------------------------------|---------------------------|
------------------------------------|---------------------------|
------------------------------------|---------------------------|
--10--10--10--10--10--10--10--10-10-|--9--9--9--9--9--9--9--9-9-|
--10--10--10--10--10--10--10--10-10-|--9--9--9--9--9--9--9--9-9-|
--10--10--10--10--10--10--10--10-10-|--9--9--9--9--9--9--9--9-9-|
 


------------------------------------|---------------------------|
------------------------------------|---------------------------|
------------------------------------|---------------------------|
--10--10--10--10--10--10--10--10-10-|--9--9--9--9--9--9--9--9-9-|
--10--10--10--10--10--10--10--10-10-|--9--9--9--9--9--9--9--9-9-|
--10--10--10--10--10--10--10--10-10-|--9--9--9--9--9--9--9--9-9-|


 
------------------------------------|---------------------------|
------------------------------------|---------------------------|
------------------------------------|---------------------------|
--10--10--10--10--10--10--10--10-10-|--9--9--9--9--9--9--9--9-9-|
--10--10--10--10--10--10--10--10-10-|--9--9--9--9--9--9--9--9-9-|
--10--10--10--10--10--10--10--10-10-|--9--9--9--9--9--9--9--9-9-|


  
------------------------------------|---------------------------|
------------------------------------|---------------------------|
------------------------------------|---------------------------|
--10--10--10--10--10--10--10--10-10-|--9--9--9--9--9--9--9--9-9-|
--10--10--10--10--10--10--10--10-10-|--9--9--9--9--9--9--9--9-9-|
--10--10--10--10--10--10--10--10-10-|--9--9--9--9--9--9--9--9-9-|


 
------------------------------------|---------------------------|
------------------------------------|---------------------------|
------------------------------------|---------------------------|
--10--10--10--10--10--10--10--10-10-|--9--9--9--9--9--9--9--9-9-|
--10--10--10--10--10--10--10--10-10-|--9--9--9--9--9--9--9--9-9-|
--10--10--10--10--10--10--10--10-10-|--9--9--9--9--9--9--9--9-9-|


 
------------------------------------|---------------------------|
------------------------------------|---------------------------|
------------------------------------|---------------------------|
--10--10--10--10--10--10--10--10-10-|--9--9--9--9--9--9--9--9-9-|
--10--10--10--10--10--10--10--10-10-|--9--9--9--9--9--9--9--9-9-|
--10--10--10--10--10--10--10--10-10-|--9--9--9--9--9--9--9--9-9-|


 
------------------------------------|---------------------------|
------------------------------------|---------------------------|
------------------------------------|---------------------------|
--10--10--10--10--10--10--10--10-10-|--9--9--9--9--9--9--9--9-9-|
--10--10--10--10--10--10--10--10-10-|--9--9--9--9--9--9--9--9-9-|
--10--10--10--10--10--10--10--10-10-|--9--9--9--9--9--9--9--9-9-|


------------------------------------|---------------------------|
------------------------------------|---------------------------|
------------------------------------|---------------------------|
--10--10--10--10--10--10--10--10-10-|--9--9--9--9--9--9--9--9-9-|
--10--10--10--10--10--10--10--10-10-|--9--9--9--9--9--9--9--9-9-|
--10--10--10--10--10--10--10--10-10-|--9--9--9--9--9--9--9--9-9-|


------------------------------------|---------------------------|
------------------------------------|---------------------------|
------------------------------------|---------------------------|
--10--10--10--10--10--10--10--10-10-|--9--9--9--9--9--9--9--9-9-|
--10--10--10--10--10--10--10--10-10-|--9--9--9--9--9--9--9--9-9-|
--10--10--10--10--10--10--10--10-10-|--9--9--9--9--9--9--9--9-9-|


   
------------------------------------|---------------------------|
------------------------------------|---------------------------|
------------------------------------|---------------------------|
--10--10--10--10--10--10--10--10-10-|--9--9--9--9--9--9--9--9-9-|
--10--10--10--10--10--10--10--10-10-|--9--9--9--9--9--9--9--9-9-|
--10--10--10--10--10--10--10--10-10-|--9--9--9--9--9--9--9--9-9-|


   
------------------------------------|---------------------------|
------------------------------------|---------------------------|
------------------------------------|---------------------------|
--10--10--10--10--10--10--10--10-10-|--9--9--9--9--9--9--9--9-9-|
--10--10--10--10--10--10--10--10-10-|--9--9--9--9--9--9--9--9-9-|
--10--10--10--10--10--10--10--10-10-|--9--9--9--9--9--9--9--9-9-|


  
------------------------------------|---------------------------|
------------------------------------|---------------------------|
------------------------------------|---------------------------|
--10--10--10--10--10--10--10--10-10-|--9--9--9--9--9--9--9--9-9-|
--10--10--10--10--10--10--10--10-10-|--9--9--9--9--9--9--9--9-9-|
--10--10--10--10--10--10--10--10-10-|--9--9--9--9--9--9--9--9-9-|


 
------------------------------------|---------------------------|
------------------------------------|---------------------------|
------------------------------------|---------------------------|
--10--10--10--10--10--10--10--10-10-|--9--9--9--9--9--9--9--9-9-|
--10--10--10--10--10--10--10--10-10-|--9--9--9--9--9--9--9--9-9-|
--10--10--10--10--10--10--10--10-10-|--9--9--9--9--9--9--9--9-9-|


                     
-------------------*||
-------------------*||
-------------------*||
--10---------------*||
--10---------------*||
--10---------------*||




| S  slide
| h  hammer-on
| p  pull-off
| ~  vibrato
| +  harmonic
| x  Mute note
============================================================================

            
            
Suggest correction
Creating personal tab
Creating personal tab
You can edit any tab online and save it as your Personal.

You can edit, replace or remove any tab part or add personal notes – all changes will be seen only by you.

Personal tabs can be accessed anytime from any device, even offline.
Learn more »
Give kudos to tab author, rate the tab!
1 2 3 4 5
comments
print report bad tab
1 comment total.
0 reply
FranKLynn 20 Jan 11, 2008 02:18 PM

Pretty acurate, but the layout's really confusing.

guest
You may want to rate the tab now too:
select rating
Wanna post a correction for this tab? Suggest correction