Oops, an error
Loading. Please wait.

Rapture bass

774 views 1 this week
1 commentread comment
1 2 3 4 5
2 more votes to show rating
add to favorites
×
Save as Personal and add changes to this tab that will be seen only by you. Learn more ›
×
You can save this tab as Personal to edit and correct it or add notes. All changes will be seen only by you. Learn more »
launch autoscroll
font size
0
reset
guitar tuner
edit
Autoscroll
slow
fast
+/-
esc
set tempo
stop
Difficulty
 ...And I      Must   Face  That I won't  Be     Saved...
      |---------------------------------------------|
      |---------------------------------------------|
      |-9~-----5~-----0~-----------9~-----5~-----0--|
      |---------------------------------------------|


|---------------------------------------------------|
|---------------------------------------------------|
|-5-5-5-4-4-4-0-0-0-0-0-0--5-5-5-4-4-4-0-0-0-0-0-0--|  x2
|---------------------------------------------------|


|-------------------------------------|
|-------------------------------------|
|-5-5-5-4-4-4-0-0-0-2-2-2-5-5-5-4-4-4-|
|-------------------------------------|

I'm Coming up From Off My Knees.The Guilt is Gone And I Can Finally Breathe
|---------------------------------------------------------------------------|
|---------------------------------------------------------------------------|
|---5555555555555555555555555555555-000000000000000000000000000000000000000-|
|---------------------------------------------------------------------------|

 But There Is Not A Plan For Me. You're Making My Tires Ears Bleed
|------------------------------------------------------------------|
|------------------------------------------------------------------|
|----5555555555555555555555555555555555-000000000-222222222222222--|
|------------------------------------------------------------------|

And   You              Can              Pray.
|------------------------------------------------------------------------|
|------------------------------------------------------------------------|
|-----9999999999999999-5555555555555555-00000000000000000000000000000000-| x2
|------------------------------------------------------------------------|


|---------------------------------------------------|
|---------------------------------------------------|
|-5-5-5-4-4-4-0-0-0-0-0-0--5-5-5-4-4-4-0-0-0-0-0-0--|  x2
|---------------------------------------------------|


|-----------------------------------------|
|-----------------------------------------|
|-5-5-5-4-4-4-0-0-0-2-2-2-5-5-5-4-4-4--0~-|
|-----------------------------------------|
Suggest correction
Creating personal tab
Creating personal tab
You can edit any tab online and save it as your Personal.

You can edit, replace or remove any tab part or add personal notes – all changes will be seen only by you.

Personal tabs can be accessed anytime from any device, even offline.
Learn more »
Give kudos to tab author, rate the tab!
1 2 3 4 5
comments
print report bad tab
1 comment total.
0 reply
Abong 384 May 02, 2007 04:39 AM

It's ok, but you need to pay more attention when you work it out - you can hear sometimes the bass goes and does something a little different. The second verse is mostly off, too, there's more variation and it goes up quite high (for a senses fail song) too.

guest
Wanna post a correction for this tab? Suggest correction