Oops, an error
Loading. Please wait.

Still Searching album tab

version 1
version 1

Album

Whole song

Interactive

6,525 views 1 this week
8 commentsread comments
1 2 3 4 5
x 5
add to favorites
×
Save as Personal and add changes to this tab that will be seen only by you. Learn more ›
×
You can save this tab as Personal to edit and correct it or add notes. All changes will be seen only by you. Learn more »
launch autoscroll
font size
0
reset
how to read this tab
guitar tuner
edit
Autoscroll
slow
fast
+/-
esc
set tempo
stop
Author
Difficulty
Senses Fail
Still Searching


1. The Rapture

Tuning: drop d

verse
e|-------------------------------------------------------|
B|-------------------------------------------------------|
G|--8-8-8-8-8--7-7-7-7-7--10-10-10-10-10--12-12-12-12-12-|    X 2
D|--x-x-x-x-x--x-x-x-x-x---x--x--x--x--x---x--x--x--x--x-|
A|--6-6-6-6-6--5-5-5-5-5---8--8--8--8--8--10-10-10-10-10-|
E|-------------------------------------------------------|

e|-------------------------------------------------------------|
B|-------------------------------------------------------------|
G|-8-8-8-8-8--10-10-10-10-10/12-12-12--10-8/15-15-15--12--10---|   X 2
D|-x-x-x-x-x---x--x--x--x--x/-x--x--x---x-x/-x--x--x---x---x---|
A|-6-6-6-6-6---8--8--8--8--8/10-10-10---8-6/13-13-13--10---8---|
E|-------------------------------------------------------------|

chorus
e|-------------------------------------------------------------------------|
B|-------------------------------------------------------------------------|
G|-------------------------------------------------------------------------|
D|-6-6-6--5-5-5--1-1-1-1--6-6-6--5-5-5--1-1-1-1-6-6-6--5-5-5--1-1-1--3-3-3-|
A|-6-6-6--5-5-5--1-1-1-1--6-6-6--5-5-5--1-1-1-1-6-6-6--5-5-5--1-1-1--3-3-3-|
E|-6-6-6--5-5-5--1-1-1-1--6-6-6--5-5-5--1-1-1-1-6-6-6--5-5-5--1-1-1--3-3-3-|

e|------------------------|
B|------------------------|
G|------------------------|
D|-6-6-6--5-5-5--1-1-1-1--|
A|-6-6-6--5-5-5--1-1-1-1--|
E|-6-6-6--5-5-5--1-1-1-1--|

last chorus end on
e|---------|
B|---------|
G|---------|
D|-1-------|
A|-1-------|
E|-1-------|
repeat verse
repeat chorus


2. Bonecrusher

Tabbed By: Chelsea

Tuning: DADGBE

*****Guitar One*****

Intro:
|-0-0-0-0-0-0-0-0-0-0-0-0-0-0-0-0-|
|-0-0-0-0-3-3-3-3-5-5-5-5-7-7-7-7~|
|---------------------------------|
|---------------------------------|
|---------------------------------|
|---------------------------------|

|-0-0-0-0-0-0-0-0-0-0-0-0-0-0-0-0-0-0-0-0-0-0-0-0-0-0-0-0-|
|-0-0-0-0-3-3-3-3-5-5-5-5-7-7-7-7-5-5-5-5-5-5-5-5-3-3-3-3-|
|---------------------------------------------------------|
|---------------------------------------------------------|
|---------------------------------------------------------|
|---------------------------------------------------------|

Verse:
|--------------------------------------------------------------------|
|--------------------------------------------------------------------|
|11-11-11-11-11-11-11--7-7-7-7-7-7-7---------------------------------|
|-x--x—-x--x--x--x--x--x-x-x-x-x-x-x--5---5---5---5-5--0---0---0-0-0-|
|-9—-9--9--9—-9—-9--9--5-5-5-5-5-5-5--5---5---5---5-5--0---0---0-0-0-|
|-------------------------------------5---5---5---5-5--0---0---0-0-0-|
PM.  .  .  .  .  .  .    . . . . . .                               |
                                                                   |x2
|--------------------------------------------------------------------|
|--------------------------------------------------------------------|
|-7-7-7-7\6-7-7-7-7\6-9-9-9-9-9-9-11-11-11-11-11-11-11-11------------|
|-x-x-x-x-x—x-x-x-x-x-x-x-x-x-x-x—-x--x--x--x--x--x--x--x------------|
|-5-5-5-5\4-5-5-5-5\4-7-7-7-7-7-7—-9--9—-9—-9—-9—-9—-9--9------------|
|--------------------------------------------------------------------|

Chorus: He does a variation of this. Just play around with it.
|--------------------------------------------------------------------|
|--------------------------------------------------------------------|
|-4-4-4-4/7-7-7-7/9-9-9-9/11-11-11-11—-x-11-11-11-11—-9-9-9-9-7-7-7-7|
|-x-x-x-x—x-x-x-x-x-x-x-x--x—-x—-x—-x—-x—-x--x--x--x—-x-x-x-x-x-x-x-x|
|-2-2-2-2/5-5-5-5/7-7-7-7/-9—-9--9--9--x--9--9--9--9--7-7-7-7-5-5-5-5|
|--------------------------------------------------------------------|

|--------------------------------------|-----------------------------|
|--------------------------------------|-15-15-15--14-14-14-14-------|
|-9-9-9-9-9-9-9-9—-9/11-7-7-7-7-7-7-7-7|--x--x--x---x--x--x--x-------|
|-x-x-x-x-x-x-x-x--x--x-x-x-x-x-x-x-x-x|-11-11-11--10-10-10-10-------|
|-7-7-7-7-7-7-7-7—-7/-9-5-5-5-5-5-5-5-5|-----------------------------|
|--------------------------------------|-----------------------------|

Verse
Then add...
|-----------|x2
|-----------|
|-7--11--16-|
|-x---x---x-|
|-5---9--14-|
|-----------|

Chorus
Breakdown:

Listen for strumming...
|-----------------------------------|
|-----------------------------------|
|-7--9-11--12-12--11-11--14--12—-14-|
|-x--x--x---x--x---x--x---x---x---x-|
|-5--7--9--14-14—-13-13--12--14—-16-|
|-----------------------------------|

|---------------------------------------------------|
|---------------------------------------------------|
|---------------------------------------------------|
|-9-9-9--0-0--5-5-5--0-0--7-7-7--0-0--9-9-----9-7-9-|
|-9-9-9--0-0--5-5-5--0-0--7-7-7--0-0--9-9-9-9-9-7-9-|
|-9-9-9--0-0--5-5-5--0-0--7-7-7--0-0--9-9-9-9-9-7-9-|
					  PM.
|-----------------------------------------------|
|-----------------------------------------------|
|-------11---------11---------12--11-11----11-9-|
|-9-9-9--x---5-5-5--x---7-7-7—-x---x--x-----x-x-|
|-9-9-9--9---5-5-5--9---7-7-7-10---9--9-9-9-9-7-|
|-9-9-9------5-5-5------7-7-7-----------9-9-----|
                                        PM.

|--------------------------------------------------------------------|
|--------------------------------------------------------------------|
|-4-4-4-4/7-7-7-7/9-9-9-9/11-11-11-11—-x-6-6-6-6/7-7-7-7-12-12-121111|
|-x-x-x-x—x-x-x-x-x-x-x-x--x—-x—-x—-x—-x—x-x-x-x—x-x-x-x--x--x--x-x-x|
|-2-2-2-2/5-5-5-5/7-7-7-7/-9—-9--9--9--x-4-4-4-4/5-5-5-5-10-10-10-9-9|
|--------------------------------------------------------------------|

Intro

|---------|
|---------|
|-7--7—-7\|
|-x--x--x-|
|-5--5—-5\|
|---------|


*****Guitar Two*****

Intro:
|--------------------------------------------------------------------|
|--------------------------------------------------------------------|
|--------------------------------------------------------------------|
|-9-9-9--0-0--5-5-5--0-0--7-7-7--0-0--9-9-----9-7-9------------------|
|-9-9-9--0-0--5-5-5--0-0--7-7-7--0-0--9-9-9-9-9-7-9------------------|
|-9-9-9--0-0--5-5-5--0-0--7-7-7--0-0--9-9-9-9-9-7-9------------------|
					  PM.
Verse:
|--------------------------------------------------------------|
|--------------------------------------------------------------|
|--------------------------------------------------------------|
|-9--------------0--------------5---5---5---5-5--0---0---0-0-0-|
|-9-9-9-9-9-9-9--0-0-0-0-0-0-0--5---5---5---5-5--0---0---0-0-0-|
|-9-9-9-9-9-9-9--0-0-0-0-0-0-0--5---5---5---5-5--0---0---0-0-0-|
PM  . . . . . .    . . . . . .                  |
                                                |x2
|-----------------------------------------------|
|-----------------------------------------------|
|-----------------------------------------------|
|-9-9-9--0-0--5-5-5--0-0--7-7-7-7-7-7-7-7-------|
|-9-9-9--0-0--5-5-5--0-0--7-7-7-7-7-7-7-7-------|
|-9-9-9--0-0--5-5-5--0-0--7-7-7-7-7-7-7-7-------|


Chorus:
|-----------------------------------------------------------------|
|-----------------------------------------------------------------|
|-----------------------------------------------------------------|
|-9-9-9-9-9-9-9-9-0-0-0-0-0-0-0-0-7-7-7-7-7-7-7-7-5-5-5-5-5-5-5-5-|
|-9-9-9-9-9-9-9-9-0-0-0-0-0-0-0-0-7-7-7-7-7-7-7-7-5-5-5-5-5-5-5-5-|
|-9-9-9-9-9-9-9-9-0-0-0-0-0-0-0-0-7-7-7-7-7-7-7-7-5-5-5-5-5-5-5-5-|

Verse
Then add...
|-----------|x2
|-----------|
|-7--11--16-|
|-x---x---x-|
|-5---9--14-|
|-----------|

Chorus

Breakdown: Listen for strumming
|----------------------------|
|----------------------------|
|-4--6--7--9-11--12-12-12-12-|
|-x--x--x--x--x---x—-x—-x--x-|
|-2--4--5--7--9--10-10-10-10-|
|----------------------------|

Intro

|-----------------------------------------------|
|-----------------------------------------------|
|--------7----------7----------9---9--9-----9-7-|
|-9-9-9--x---5-5-5--x---7-7-7—-x---x--x-----x-x-|
|-9-9-9--5---5-5-5--5---7-7-7--7---7--7-9-9-7-5-|
|-9-9-9------5-5-5------7-7-7-----------9-9-----|
				        PM.
Intro

|-------|
|-------|
|-------|
|-9-9-9||
|-9-9-9\|
|-9-9—9\|


3. Sick Or Sane (Fifty For A Twenty)

Tabbed by: lost in 3 words	
Tuning: drop d (Dadgbe)
     
     |chorus:
e|---|---------------------------------------------------------------------|
B|---|---------------------------------------------------------------------|
G|---|10-10-10-9-12-7-7-7-9-9-9---10-10-10-9-12-7-7-7-9-9-9----------------|
D|---|-x--x--x-x--x-x-x-x-x-x-x----x--x--x-x--x-x-x-x-x-x-x----------------|
A|---|-8--8--8-7-10-5-5-5-7-7-7----8--8--8-7-10-5-5-5-7-7-7----------------|
D|12/|---------------------------------------------------------------------|

e|-------------------------------------------------------------------------|
B|-------------------------------------------------------------------------|
G|-14-14-14-12-15-10-10-10-12-12-10-10-10-10-9-12-7-7-7-9-9-9--------------|
D|--x--x--x--x--x--x--x--x--x--x--x--x--x--x-x--x-x-x-x-x-x-x--------------|
A|-12-12-12-10-13--8--8--8-10-10--8--8--8--8-7-10-5-5-5-7-7-7--------------|
D|-------------------------------------------------------------------------|

       verse:
e|-------------------------------------------------------------------------|
B|-------------------------------------------------------------------------|
G|10/----10-9-10-----------------------------------------------------------|
D|-x------x-x--x-0-----8-8-------10-10-------------------------------------|
A|-8/-----8-8--8-0-8-8-8-8-10-10-10-10-------------------------------------|
D|---------------0-8-8-8-8-10-10-10-10------------------------------------- 
PM                 . .      .  .         
e|-------------------------------------------------------------------------|
B|-------------------------------------------------------------------------|
G|---10-9-10---------------------------------------------------------------|
D|-0--x-x--x-0-------------10-3--------------------------------------------|
A|-0--8-8--8-0-0-0-0-8-8-8-10-3--------------------------------------------|
D|-0---------0-0-0-0-8-8-8-10-3--------------------------------------------|
 PM            . . . . . .                 
e|-------------------------------------------------------------------------|
B|-------------------------------------------------------------------------|
G|-----10-----10-----10----------------------------------------------------|
D|------x------x------x----------------------------------------------------|
A|-0-0--8-0-0--8-0-0--8---8-8-8-10-10-10-----------------------------------|
D|-0-0----0-0----0-0------8-8-8-10-10-10-----------------------------------|
PM . .    . .    . .      . . .  .  .  .                
e|-------------------------------------------------------------------------|
B|-------------------------------------------------------------------------|
G|-----10-----10-----------------------------------------------------------|
D|------x------x-----------------------------------------------------------|
A|-0-0--8-0-0--8-8-8-8-8-8-8-10-10-10-10-10-10-----------------------------|
D|-0-0----0-0----8-8-8-8-8-8-10-10-10-10-10-10-----------------------------|
PM . .    . .    . . . . . .  .  .  .  .  .  .                   
e|-------------------------------------------------------------------------|
B|-------------------------------------------------------------------------|
G|-----10-----10-----10----------------------------------------------------|
D|------x------x------x----------------------------------------------------|
A|-0-0--8-0-0--8-0-0--8---8-8-8-10-10-10-----------------------------------|
D|-0-0----0-0----0-0------8-8-8-10-10-10-----------------------------------|
 PM. .    . .    . .      . . .  .  .  .        
e|-------------------------------------------------------------------------|
B|-------------------------------------------------------------------------|
G|-----10-----10-----------------------------------------------------------|
D|------x------x-8-8-8-8-8-8-10-3------------------------------------------|
A|-0-0--8-0-0--8-8-8-8-8-8-8-10-3------------------------------------------|
D|-0-0----0-0----8-8-8-8-8-8-10-3------------------------------------------|
 PM. .    . .    . . . . . .
            play the chorus and verse twice then play the chorus again 
                              and then play this>
 
e|----------------13----------17-17-15-14/15-------------------------------|
B|-15-13----13-15----15-13-15----------------15-13-15-15-13----------------|
G|-------14-------------------------------------------------14-------------|
D|-------------------------------------------------------------------------|
A|-------------------------------------------------------------------------|
D|-------------------------------------------------------------------------|

e|-------------------------------------------------------------------------|
B|---------------------------------------------13-15-15-15-13---13---------|
G|-12----12------------------------------12-------------------14---14-12-14|
D|----15----11-12------12----12-15-12-15----15-----------------------------|
A|---------------12-15----15-----------------------------------------------|
D|-------------------------------------------------------------------------|

e|----------13-15-17-15-13-15-17-18-17-15-pb15-13-pb13-10-10-10b-----------|
B|---------------------------------------------------------------10-10-----|
G|-12----------------------------------------------------------------------|
D|----12-12----------------------------------------------------------------|
A|-------------------------------------------------------------------------|
D|-------------------------------------------------------------------------|

e|-------------------------------------------|-----------------------------|
B|-10b-8-8-10b-------------------------------|-----------------------------|
G|-------------10-10-9-9---------------------|-----------------------------|
D|-----------------------12/0-12/0-12/0-12/0-|-----------------------------|
A|-----------------------12/0-12/0-12/0-12/0-|-----------------------------|
D|-----------------------12/0-12/0-12/0-12/0-|-0-0-3-0-3-0-0-3- (x alot)---|

e|-------------------------------------------------------------------------|
B|-------------------------------------------------------------------------|
G|----10-10-10-9-12-7-7-7-9-9-9---10-10-10-9-12-7-7-7-9-9-9----------------|
D|-----x--x--x-x--x-x-x-x-x-x-x----x--x--x-x--x-x-x-x-x-x-x----------------|
A|-----8--8--8-7-10-5-5-5-7-7-7----8--8--8-7-10-5-5-5-7-7-7----------------|
D|-------------------------------------------------------------------------|

e|-------------------------------------------------------------------------|
B|-------------------------------------------------------------------------|
G|-14-14-14-12-15-10-10-10-12-12-10-10-10-10-9-12-7-7-7-9-9-9--------------|
D|--x--x--x--x--x--x--x--x--x--x--x--x--x--x-x--x-x-x-x-x-x-x--------------|
A|-12-12-12-10-13--8--8--8-10-10--8--8--8--8-7-10-5-5-5-7-7-7--------------|
D|-------------------------------------------------------------------------|

e|-pb12-10-10-pb10------------------|-pb12-10-10-pb12-10-13-13-15-10~------|
B|-----------------13-13/14-10------|--------------------------------------|
G|---------------------------- (X3) |--------------------------------------|
D|----------------------------------|--------------------------------------|
A|----------------------------------|--------------------------------------|
D|----------------------------------|--------------------------------------|


4. Cant Be Saved

Tuning: Drop D

I dont have all of this song tabbed out...but the stuff i have sounds pretty 
than the other guy who posted...well here i go..

Intro Part 1:

Gtr. 1
e|--------|
B|---19---|
G|--------| Let this note ring out until 2nd part starts
D|--------|
A|--------|
D|--------|

Gtr. 2
e|-----------------------|
B|-----------------------|
G|-----------------------|
D|---0----5--------------| Let Each Note Ring
A|---0----5--------------|
D|---0----5----1/12\5----|


Intro Part 2:
Gtr. 1
e|-----------17--19--17-------         ---------------------------------|
B|---19--20--------------20--- <--(x3) ---19h20--19--19h20--19h20--19---|
G|----------------------------         ---------------------------------|
D|----------------------------         ---------------------------------|
A|----------------------------         ---------------------------------|
D|----------------------------         ---------------------------------|

(Note: that last XXXX19X that Gtr. 1 plays rings out through first verse)

Gtr. 2
e|-------------------------------- ----        --------------------|
B|------------------------------------         --------------------|
G|--------------------7-7-7---9-9-9---         --------------------| <--(x2)
D|---0--0-0-0-0-0-0---5-5-5---7-7-7--- <--(3x) ---0--0-0-0-0-0-0---|
A|---0--0-0-0-0-0-0---5-5-5---7-7-7---         ---0--0-0-0-0-0-0---|
D|---0--0-0-0-0-0-0---5-5-5---7-7-7---         ---0--0-0-0-0-0-0---|


Verse Part 1:

Gtr. 1
e|-----------------------------------------------------------------------|
B|-----------------------------------------------------------------------|
G|-----------------------------------------------------------------------|
D|--------------------5-5-5-5-5-5-5-5------------------------------------|
A|-------------------------------------5-5-5-5-5-5-5-5-5-5-5-5-5-5-5-5---|
D|---9-9-9-9-9-9-9-9-----------------------------------------------------|
PM   . . . . . . . .  . . . . . . . .  . . . . . . . . . . . . . . . .

Gtr. 2
e|-----------------------------------------------------------------------|
B|-----------------------------------------------------------------------|
G|-----------------------------------------------------------------------|
D|--------------------9-9-9-9-9-9-9-9--7-7-7-7-7-7-7-7-7-7-7-7-7-7-7-7---|
A|-----------------------------------------------------------------------|
D|---9-9-9-9-9-9-9-9-----------------------------------------------------|
PM   . . . . . . . .  . . . . . . . .  . . . . . . . . . . . . . . . .




Verse Part 2:


Gtr. 1
e|-----------------------------------------------------------------------|
B|-----------------------------------------------------------------------|
G|-----------------------------------------------------------------------|
D|--------------------5-5-5-5-5-5-5-5------------------------------------|
A|-------------------------------------5-5-5-5-5-5-5-5-5-5-5-5-5-5-5-5---|
D|---9-9-9-9-9-9-9-9-----------------------------------------------------|
PM   . . . . . . . .  . . . . . . . .  . . . . . . . . . . . . . . . .

Gtr. 2
e|-----------------------------------------------------------------------|
B|-----------------------------------------------------------------------|
G|-----------------------------------------------------6h7-6h7-/9~-------|
D|--------------------9-9-9-9-9-9-9-9--7-7-7-7-7-7-7-7-------------------|
A|-----------------------------------------------------------------------|
D|---9-9-9-9-9-9-9-9-----------------------------------------------------|
PM   . . . . . . . .  . . . . . . . .  . . . . . . . . 


Verse Part 3:

Gtr. 1,2
e|-------------------------------------------------------------------|
B|-------------------------------------------------------------------|
G|-------------------------------------------------------------------|
D|------------------------5------5-----------------------0------0----|
A|---9-9-9-9-9-9-9-9--5-5-5--5-5-5---0-0-0-0-0-0-0-0-0-0-0--0-0-0----|
D|---9-9-9-9-9-9-9-9--5-5-5--5-5-5---0-0-0-0-0-0-0-0-0-0-0--0-0-0----|
PM   . . . . . . . .  . .    . .     . . . . . . . . . .    . .


e|--------------------------------------------------------------------|
B|--------------------------------------------------------------------|
G|--------------------------------------------------------------------|
D|---9-------------------5------5-------------------0-0-0-0-0-0-0-0---|
A|---9--9-9-9-9-9-9--5-5-5--5-5-5---0-0-0-0-0-0-0-0-0-0-0-0-0-0-0-0---|
D|---9--9-9-9-9-9-9--5-5-5--5-5-5---0-0-0-0-0-0-0-0-0-0-0-0-0-0-0-0---|
PM      . . . . . .  . .    . .     . . . . . . . .
 

Chorus = Intro Part 2

Verse = Repeat Part 1

Verse Part 2:

Gtr. 1
e|-----------------------------------------------------------------------|
B|-----------------------------------------------------------------------|
G|-----------------------------------------------------------------------|
D|--------------------5-5-5-5-5-5-5-5------------------------------------|
A|-------------------------------------5-5-5-5-5-5-5-5-5-5-5-5-5-5-5-5---|
D|---9-9-9-9-9-9-9-9-----------------------------------------------------|
PM   . . . . . . . .  . . . . . . . .  . . . . . . . . . . . . . . . .


Gtr. 2
e|-----------------------------------------------------------------------|
B|-------------------------------------------------------------7*--------|
G|-----------------------------------------------------6h7-6h7-----------|
D|--------------------9-9-9-9-9-9-9-9--7-7-7-7-7-7-7-7-------------------|
A|-----------------------------------------------------------------------|
D|---9-9-9-9-9-9-9-9-----------------------------------------------------|
PM   . . . . . . . .  . . . . . . . .  . . . . . . . . 


Repeat Verse Part 3

Repeat Chorus


Bridge:
Gtr. 2 
e|-----------------------------------|
B|-----------------------------------|
G|-----------------------------------|
D|-----------------------------------|
A|-----------------------------------|
D|---0-4-5-0-4-5-0-4-5-0-4-5-5-4-0---|


Then Gtr. 1 enters:
e|----------------------------------------------------------------------|
B|----------------------------------------------------------------------|
G|----------------------------------------------------------------------|
D|---0-7-9-0-7-9-0-7-9-0-7-9-9-7-0-0-7-9-0-7-9-0-9-11-0-11-13-13-11-0---|
A|----------------------------------------------------------------------|
D|----------------------------------------------------------------------|

That’s all I have right now...figure out the rest


5. Calling All Cars

 Guitar 1
(Drop D)
intro
=====
e--------------------------------------------------------------------|
b--------------------------------------------------------------------|
g----------------------------------------7---------------------------|
d-9999------7777------0000------5555-----7---------------------------|
a-9999(X16)-7777(X16)-0000(X16)-5555(X8)-5---------------------------|
d-9999------7777------0000------5555-----5---------------------------|
  PM         PM        PM        PM

intro (cont.)
=============
---------------------------10-9-7--------------------------------------|
------10----10---10----10--------10------------------------------------|
--6-7---6-7---6-7---6-7------------(Repeat)----------------------------|
-----------------------------------------------------------------------|
-----------------------------------------------------------------------|
-----------------------------------------------------------------------|

17-14-14-14-14-14-15-14-14-14-----------------------------------------|
----------------------------15-14-14-15-(Repeat)----------------------|
----------------------------------------------------------------------|
----------------------------------------------------------------------|
----------------------------------------------------------------------|
----------------------------------------------------------------------|

Verse 1 (Do the same thing for second verse)
=======

---------------------------------------------------------------------|
---------------------------------------------------------------------|
-------------------7-7-7777---------(Repeat)-------------------------|
-9-9-999-7-7-xxxx--7-7-7777-5-5-xxxx---------------------------------|
-9-9-999-7-7-xxxx--5-5-5555-5-5-xxxx---------------------------------|
-9-9-999-7-7-xxxx-----------5-5-xxxx---------------------------------|

---------------------------------------------------------------------|
---------------------------------------------------------------------|
--------------------7777---------------------------------7777--------|
9999------7777------7777(8X)-5555------9999-----7777-----7777(12X)---|
9999-(8X)-7777-(8X)-5555-----5555-(8X)-9999(8X)-7777(8X)-5555--------|
9999------7777---------------5555------9999-----7777-----------------|

Chorus
======

---------------------------------------------------------------------|
---------------------------------------------------------------------|
---------------------------------------------------------------------|
0000------7777------5-9999------5555------555555-(Repeat)------------|
0000(16X)-7777(15X)-5-9999(16X)-5555(16X)-555555---------------------|
0000------7777------5-9999------5555------555555---------------------|
                                           P.M.

6. Shark Attack
Tabbed by Yozoniac



(INTRO)

[GUITAR 1]
d|-----------------------------------------------------------|
a|-----------------------------------------------------------|
f|-----------------------------------------------------------|
c|--0--0-0--0-8---0-0--0-7--10---0--0-0--0-8---0-0--0-7--10--|
g|--0--0-0--0-8---0-0--0-7--10---0--0-0--0-8---0-0--0-7--10--|
C|--0--0-0--0-8---0-0--0-7--10---0--0-0--0-8---0-0--0-7--10--|

[GUITAR 2]
d|-----------------------------------------------------------|
a|-----------------------------------------------------------|
f|-----------------------------------------------------------|
c|--0--0-0--0-8---0-0--0-7--10---0--0-0--0-8---0-0--0-7--10--|
g|--0--0-0--0-8---0-0--0-7--10---0--0-0--0-8---0-0--0-7--10--|
C|--0--0-0--0-8---0-0--0-7--10---0--0-0--0-8---0-0--0-7--10--|


[GUITAR 1]
d|-----------------------------------------------------------|
a|-----------------------------------------------------------|
f|-----------------------------------------------------------|
c|--0--0-0--0-8---0-0--0-7--10---0--0-0--0-8---0-0--0-7------|
g|--0--0-0--0-8---0-0--0-7--10---0--0-0--0-8---0-0--0-7------|
C|--0--0-0--0-8---0-0--0-7--10---0--0-0--0-8---0-0--0-7------|

[GUITAR 2]
d|-----------------------------------------------------------|
a|-----------------------------------------------------------|
f|-----------------------------------------------------------|
c|--0--0-0--0-8---0-0--0-7--10---0--0-0--0-8---0-0--0-7--10--|
g|--0--0-0--0-8---0-0--0-7--10---0--0-0--0-8---0-0--0-7--10--|
C|--0--0-0--0-8---0-0--0-7--10---0--0-0--0-8---0-0--0-7--10--|

[GUITAR 1]
d|-------------------------------------------------------------------------------|
a|-------------------------------------------------------------------------------|
f|--10-10-10-10-10-10-12-12-12-12-9-9-9-9--10-10-10-10-10-10-12-12-12-12-9-9-9-9-|
c|---x--x--x--x--x--x--x--x--x--x-x-x-x-x---x--x--x--x--x--x--x--x--x--x-x-x-x-x-|
g|---8--8--8--8--8--8-10-10-10-10-7-7-7-7---8--8--8--8--8--8-10-10-10-10-7-7-7-7-|
C|-------------------------------------------------------------------------------|

[GUITAR 2]
d|-----------------------------------------------------------|
a|-----------------------------------------------------------|
f|-----------------------------------------------------------|
c|--0--0-0--0-8---0-0--0-7--10---0--0-0--0-8---0-0--0-7--10--|
g|--0--0-0--0-8---0-0--0-7--10---0--0-0--0-8---0-0--0-7--10--|
C|--0--0-0--0-8---0-0--0-7--10---0--0-0--0-8---0-0--0-7--10--|


[GUITAR 1]
d|-------------------------------------------------------------------------------|
a|-------------------------------------------------------------------------------|
f|--10-10-10-10-10-10-12-12-12-12-9-9-9-9--10-10-10-10-10-10-12-12-12-12-9-9-9-9-|
c|---x--x--x--x--x--x--x--x--x--x-x-x-x-x---x--x--x--x--x--x--x--x--x--x-x-x-x-x-|
g|---8--8--8--8--8--8-10-10-10-10-7-7-7-7---8--8--8--8--8--8-10-10-10-10-7-7-7-7-|
C|-------------------------------------------------------------------------------|

[GUITAR 2]
d|-----------------------------------------------------------|
a|-----------------------------------------------------------|
f|-----------------------------------------------------------|
c|--0--0-0--0-8---0-0--0-7--10---0--0-0--0-8---0-0--0-7--10--|
g|--0--0-0--0-8---0-0--0-7--10---0--0-0--0-8---0-0--0-7--10--|
C|--0--0-0--0-8---0-0--0-7--10---0--0-0--0-8---0-0--0-7--10--|

(VERSE)

[GUITAR 1]
d|-------------------|------------------|
a|-------------------|------------------|
f|-------------------|------------------|
c|-0-----------------|-8----------------|
g|-0-----------------|-8----------------|
C|-0-----------------|-8----------------|

[GUITAR 2]
d|-------------------|------------------|
a|-------------------|------------------|
f|-------------------|------------------|
c|-0-----------------|-8----------------|
g|-0-----------------|-8----------------|
C|-0-----------------|-8----------------|

[GUITAR 1]
d|-------------------|------------------|
a|-------------------|------------------|
f|-------------------|------------------|
c|-0-----------------|-8----------------|
g|-0-----------------|-8----------------|
C|-0-----------------|-8----------------|

[GUITAR 2]
d|-------------------|------------------|
a|-------------------|------------------|
f|-------------------|------------------|
c|-0-----------------|-8----------------|
g|-0-----------------|-8----------------|
C|-0-----------------|-8----------------|


(PRE-CHORUS)


[GUITAR 1]
   PM------|      PM        PM    PM------|      PM---------------|       PM
d|----------------------------------------------------------------|
a|----------------------------------------------------------------|
f|----------------------------------------------------------------|
c|-0--0-0--0-10---10--10-9--9-9---8--8-8--8-10---10--10-9--9-9----|
g|-0--0-0--0--8----8---8-7--7-7---8--8-8--8--8----8---8-7--7-7----|
C|-0--0-0--0----------------------8--8-8--8-----------------------|

[GUITAR 2]
   PM------|      PM        PM    PM------|      PM---------------|       PM
d|----------------------------------------------------------------|
a|----------------------------------------------------------------|
f|----------------------------------------------------------------|
c|-0--0-0--0-10---10--10-9--9-9---8--8-8--8-10---10--10-9--9-9----|
g|-0--0-0--0--8----8---8-7--7-7---8--8-8--8--8----8---8-7--7-7----|
C|-0--0-0--0----------------------8--8-8--8-----------------------|

[GUITAR 1]
   PM------|      PM        PM    PM------|      PM---------------|       PM
d|----------------------------------------------------------------|
a|----------------------------------------------------------------|
f|----------------------------------------------------------------|
c|-0--0-0--0-10---10--10-9--9-9---8--8-8--8-10---10--10-9--9-9----|
g|-0--0-0--0--8----8---8-7--7-7---8--8-8--8--8----8---8-7--7-7----|
C|-0--0-0--0----------------------8--8-8--8-----------------------|

[GUITAR 2]
   PM------|      PM        PM    PM------|      PM---------------|       PM
d|----------------------------------------------------------------|
a|----------------------------------------------------------------|
f|----------------------------------------------------------------|
c|-0--0-0--0-10---10--10-9--9-9---8--8-8--8-10---10--10-9--9-9----|
g|-0--0-0--0--8----8---8-7--7-7---8--8-8--8--8----8---8-7--7-7----|
C|-0--0-0--0----------------------8--8-8--8-----------------------|

[GUITAR 1}
d|-----------------------------------------|
a|-----------------------------------------|
f|-10-10-10-10-10-10-10-10-9-9-9-9-9-9-9-9-|
c|--x--x--x--x--x--x--x--x-x-x-x-x-x-x-x-x-|
g|--8--8--8--8--8--8--8--8-7-7-7-7-7-7-7-7-|
C|-----------------------------------------|

[GUITAR 2]
d|-----------------------------------|
a|-----------------------------------|
f|-----------------------------------|
c|--8-8-8-8-8-8-8-8-8-8-8-8-8-8-8-8--|
g|--8-8-8-8-8-8-8-8-8-8-8-8-8-8-8-8--|
C|--8-8-8-8-8-8-8-8-8-8-8-8-8-8-8-8--|

[GUITAR 1}
d|-----------------------------------------|
a|-----------------------------------------|
f|-10-10-10-10-10-10-10-10-9-9-9-9-9-9-9-9-|
c|--x--x--x--x--x--x--x--x-x-x-x-x-x-x-x-x-|
g|--8--8--8--8--8--8--8--8-7-7-7-7-7-7-7-7-|
C|-----------------------------------------|

[GUITAR 2]
d|-----------------------------------|
a|-----------------------------------|
g|-----------------------------------|
c|--5-5-5-5-5-5-5-5-5-5-5-5-5-5-5-5--|
g|--5-5-5-5-5-5-5-5-5-5-5-5-5-5-5-5--|
C|--5-5-5-5-5-5-5-5-5-5-5-5-5-5-5-5--|

[GUITAR 1}
d|-----------------------------------------|
a|-----------------------------------------|
f|-10-10-10-10-10-10-10-10-9-9-9-9-9-9-9-9-|
c|--x--x--x--x--x--x--x--x-x-x-x-x-x-x-x-x-|
g|--8--8--8--8--8--8--8--8-7-7-7-7-7-7-7-7-|
C|-----------------------------------------|

[GUITAR 2]
d|-----------------------------------|
a|-----------------------------------|
f|-----------------------------------|
c|--8-8-8-8-8-8-8-8-8-8-8-8-8-8-8-8--|
g|--8-8-8-8-8-8-8-8-8-8-8-8-8-8-8-8--|
C|--8-8-8-8-8-8-8-8-8-8-8-8-8-8-8-8--|

[GUITAR 1}
d|-----------------------------------------|
a|-----------------------------------------|
f|-10-10-10-10-10-10-10-10-9-9-9-9-9-9-9-9-|
c|--x--x--x--x--x--x--x--x-x-x-x-x-x-x-x-x-|
g|--8--8--8--8--8--8--8--8-7-7-7-7-7-7-7-7-|
C|-----------------------------------------|

[GUITAR 2]
d|-----------------------------------|
a|-----------------------------------|
g|-----------------------------------|
c|--5-5-5-5-5-5-5-5-5-5-5-5-5-5-5-5--|
g|--5-5-5-5-5-5-5-5-5-5-5-5-5-5-5-5--|
C|--5-5-5-5-5-5-5-5-5-5-5-5-5-5-5-5--|


(CHORUS)
[AUTHOR's NOTE : I don't know why, playing this part especially is really fun]

[GUITAR 1]
d|-----------------------------------------------------------------|
a|-----------------------------------------------------------------|
f|------10--10-------10--10----9--------10--10-------10--10----12--|
c|-0--0--X--1X-0---0--X---X-0--X---0--0--X---X-0---0--X---X-0---X--|
g|-0--0--8---8-0---0--8---8-0--7---0--0--8---8-0---0--8---8-0--10--|
C|-0--0--------0---0--------0------0--0--------0---0--------0------|

[GUITAR 2]
d|-----------------------------------------------------------------|
a|-----------------------------------------------------------------|
f|------10--10-------10--10----9--------10--10-------10--10----12--|
c|-0--0-10--10-0---0-10--10-0--9---0--0-10--10-0---0-10--10-0--12--|
g|-0--0--8---8-0---0--8---8-0--7---0--0--8---8-0---0--8---8-0--10--|
C|-0--0--------0---0--------0------0--0--------0---0--------0------|

[GUITAR 1]
d|-------------------------------------------|
a|-------------------------------------------|
f|------10-10-------------------10-10--------|
c|-8--8--X--X-8------------5--5--X--X-5------|
g|-8--8--8--8-8------------5--5--8--8-5------|
C|-8--8-------8------------5--5-------5------|

[GUITAR 2]
d|-------------------------------------------|
a|-------------------------------------------|
f|------10-10-------------------10-10--------|
c|-8--8-10-10-8------------5--5-10-10-5------|
g|-8--8--8--8-8------------5--5--8--8-5------|
C|-8--8-------8------------5--5-------5------|

[GUITAR 1]
d|-----------------------------------------------------------------|
a|-----------------------------------------------------------------|
f|------10--10-------10--10----9--------10--10-------10--10----12--|
c|-0--0--X--1X-0---0--X---X-0--X---0--0--X---X-0---0--X---X-0---X--|
g|-0--0--8---8-0---0--8---8-0--7---0--0--8---8-0---0--8---8-0--10--|
C|-0--0--------0---0--------0------0--0--------0---0--------0------|

[GUITAR 2]
d|-----------------------------------------------------------------|
a|-----------------------------------------------------------------|
f|------10--10-------10--10----9--------10--10-------10--10----12--|
c|-0--0-10--10-0---0-10--10-0--9---0--0-10--10-0---0-10--10-0--12--|
g|-0--0--8---8-0---0--8---8-0--7---0--0--8---8-0---0--8---8-0--10--|
C|-0--0--------0---0--------0------0--0--------0---0--------0------|

[GUITAR 1]
d|-------------------------------------------|
a|-------------------------------------------|
f|------10-10-------------------10-10--------|
c|-8--8--X--X-8------------5--5--X--X-5------|
g|-8--8--8--8-8------------5--5--8--8-5------|
C|-8--8-------8------------5--5-------5------|

[GUITAR 2]
d|-------------------------------------------|
a|-------------------------------------------|
f|------10-10-------------------10-10--------|
c|-8--8-10-10-8------------5--5-10-10-5------|
g|-8--8--8--8-8------------5--5--8--8-5------|
C|-8--8-------8------------5--5-------5------|


(VERSE)

[GUITAR 1]
d|-------------------|------------------|
a|-------------------|------------------|
f|-------------------|------------------|
c|-0-----------------|-8----------------|
g|-0-----------------|-8----------------|
C|-0-----------------|-8----------------|

[GUITAR 2]
d|-------------------|------------------|
a|-------------------|------------------|
f|-------------------|------------------|
c|-0-----------------|-8----------------|
g|-0-----------------|-8----------------|
C|-0-----------------|-8----------------|

[GUITAR 1]
d|-------------------|------------------|
a|-------------------|------------------|
f|-------------------|------------------|
c|-0-----------------|-8----------------|
g|-0-----------------|-8----------------|
C|-0-----------------|-8----------------|

[GUITAR 2]
d|-------------------|------------------|
a|-------------------|------------------|
f|-------------------|------------------|
c|-0-----------------|-8----------------|
g|-0-----------------|-8----------------|
C|-0-----------------|-8----------------|


(PRE-CHORUS)


[GUITAR 1]
   PM------|      PM        PM    PM------|      PM---------------|       PM
d|----------------------------------------------------------------|
a|----------------------------------------------------------------|
f|----------------------------------------------------------------|
c|-0--0-0--0-10---10--10-9--9-9---8--8-8--8-10---10--10-9--9-9----|
g|-0--0-0--0--8----8---8-7--7-7---8--8-8--8--8----8---8-7--7-7----|
C|-0--0-0--0----------------------8--8-8--8-----------------------|

[GUITAR 2]
   PM------|      PM        PM    PM------|      PM---------------|       PM
d|----------------------------------------------------------------|
a|----------------------------------------------------------------|
f|----------------------------------------------------------------|
c|-0--0-0--0-10---10--10-9--9-9---8--8-8--8-10---10--10-9--9-9----|
g|-0--0-0--0--8----8---8-7--7-7---8--8-8--8--8----8---8-7--7-7----|
C|-0--0-0--0----------------------8--8-8--8-----------------------|

[GUITAR 1]
   PM------|      PM        PM    PM------|      PM---------------|       PM
d|----------------------------------------------------------------|
a|----------------------------------------------------------------|
f|----------------------------------------------------------------|
c|-0--0-0--0-10---10--10-9--9-9---8--8-8--8-10---10--10-9--9-9----|
g|-0--0-0--0--8----8---8-7--7-7---8--8-8--8--8----8---8-7--7-7----|
C|-0--0-0--0----------------------8--8-8--8-----------------------|

[GUITAR 2]
   PM------|      PM        PM    PM------|      PM---------------|       PM
d|----------------------------------------------------------------|
a|----------------------------------------------------------------|
f|----------------------------------------------------------------|
c|-0--0-0--0-10---10--10-9--9-9---8--8-8--8-10---10--10-9--9-9----|
g|-0--0-0--0--8----8---8-7--7-7---8--8-8--8--8----8---8-7--7-7----|
C|-0--0-0--0----------------------8--8-8--8-----------------------|

[GUITAR 1}
d|-----------------------------------------|
a|-----------------------------------------|
f|-10-10-10-10-10-10-10-10-9-9-9-9-9-9-9-9-|
c|--x--x--x--x--x--x--x--x-x-x-x-x-x-x-x-x-|
g|--8--8--8--8--8--8--8--8-7-7-7-7-7-7-7-7-|
C|-----------------------------------------|

[GUITAR 2]
d|-----------------------------------|
a|-----------------------------------|
f|-----------------------------------|
c|--8-8-8-8-8-8-8-8-8-8-8-8-8-8-8-8--|
g|--8-8-8-8-8-8-8-8-8-8-8-8-8-8-8-8--|
C|--8-8-8-8-8-8-8-8-8-8-8-8-8-8-8-8--|

[GUITAR 1}
d|-----------------------------------------|
a|-----------------------------------------|
f|-10-10-10-10-10-10-10-10-9-9-9-9-9-9-9-9-|
c|--x--x--x--x--x--x--x--x-x-x-x-x-x-x-x-x-|
g|--8--8--8--8--8--8--8--8-7-7-7-7-7-7-7-7-|
C|-----------------------------------------|

[GUITAR 2]
d|-----------------------------------|
a|-----------------------------------|
g|-----------------------------------|
c|--5-5-5-5-5-5-5-5-5-5-5-5-5-5-5-5--|
g|--5-5-5-5-5-5-5-5-5-5-5-5-5-5-5-5--|
C|--5-5-5-5-5-5-5-5-5-5-5-5-5-5-5-5--|

[GUITAR 1}
d|-----------------------------------------|
a|-----------------------------------------|
f|-10-10-10-10-10-10-10-10-9-9-9-9-9-9-9-9-|
c|--x--x--x--x--x--x--x--x-x-x-x-x-x-x-x-x-|
g|--8--8--8--8--8--8--8--8-7-7-7-7-7-7-7-7-|
C|-----------------------------------------|

[GUITAR 2]
d|-----------------------------------|
a|-----------------------------------|
f|-----------------------------------|
c|--8-8-8-8-8-8-8-8-8-8-8-8-8-8-8-8--|
g|--8-8-8-8-8-8-8-8-8-8-8-8-8-8-8-8--|
C|--8-8-8-8-8-8-8-8-8-8-8-8-8-8-8-8--|

[GUITAR 1}
d|-----------------------------------------|
a|-----------------------------------------|
f|-10-10-10-10-10-10-10-10-9-9-9-9-9-9-9-9-|
c|--x--x--x--x--x--x--x--x-x-x-x-x-x-x-x-x-|
g|--8--8--8--8--8--8--8--8-7-7-7-7-7-7-7-7-|
C|-----------------------------------------|

[GUITAR 2]
d|-----------------------------------|
a|-----------------------------------|
g|-----------------------------------|
c|--5-5-5-5-5-5-5-5-5-5-5-5-5-5-5-5--|
g|--5-5-5-5-5-5-5-5-5-5-5-5-5-5-5-5--|
C|--5-5-5-5-5-5-5-5-5-5-5-5-5-5-5-5--|

(CHORUS)

[GUITAR 1]
d|-----------------------------------------------------------------|
a|-----------------------------------------------------------------|
f|------10--10-------10--10----9--------10--10-------10--10----12--|
c|-0--0--X--1X-0---0--X---X-0--X---0--0--X---X-0---0--X---X-0---X--|
g|-0--0--8---8-0---0--8---8-0--7---0--0--8---8-0---0--8---8-0--10--|
C|-0--0--------0---0--------0------0--0--------0---0--------0------|

[GUITAR 2]
d|-----------------------------------------------------------------|
a|-----------------------------------------------------------------|
f|------10--10-------10--10----9--------10--10-------10--10----12--|
c|-0--0-10--10-0---0-10--10-0--9---0--0-10--10-0---0-10--10-0--12--|
g|-0--0--8---8-0---0--8---8-0--7---0--0--8---8-0---0--8---8-0--10--|
C|-0--0--------0---0--------0------0--0--------0---0--------0------|

[GUITAR 1]
d|-------------------------------------------|
a|-------------------------------------------|
f|------10-10-------------------10-10--------|
c|-8--8--X--X-8------------5--5--X--X-5------|
g|-8--8--8--8-8------------5--5--8--8-5------|
C|-8--8-------8------------5--5-------5------|

[GUITAR 2]
d|-------------------------------------------|
a|-------------------------------------------|
f|------10-10-------------------10-10--------|
c|-8--8-10-10-8------------5--5-10-10-5------|
g|-8--8--8--8-8------------5--5--8--8-5------|
C|-8--8-------8------------5--5-------5------|

[GUITAR 1]
d|-----------------------------------------------------------------|
a|-----------------------------------------------------------------|
f|------10--10-------10--10----9--------10--10-------10--10----12--|
c|-0--0--X--1X-0---0--X---X-0--X---0--0--X---X-0---0--X---X-0---X--|
g|-0--0--8---8-0---0--8---8-0--7---0--0--8---8-0---0--8---8-0--10--|
C|-0--0--------0---0--------0------0--0--------0---0--------0------|

[GUITAR 2]
d|-----------------------------------------------------------------|
a|-----------------------------------------------------------------|
f|------10--10-------10--10----9--------10--10-------10--10----12--|
c|-0--0-10--10-0---0-10--10-0--9---0--0-10--10-0---0-10--10-0--12--|
g|-0--0--8---8-0---0--8---8-0--7---0--0--8---8-0---0--8---8-0--10--|
C|-0--0--------0---0--------0------0--0--------0---0--------0------|

[GUITAR 1]
d|-------------------------------------------|
a|-------------------------------------------|
f|------10-10-------------------10-10--------|
c|-8--8--X--X-8------------5--5--X--X-5------|
g|-8--8--8--8-8------------5--5--8--8-5------|
C|-8--8-------8------------5--5-------5------|

[GUITAR 2]
d|-------------------------------------------|
a|-------------------------------------------|
f|------10-10-------------------10-10--------|
c|-8--8-10-10-8------------5--5-10-10-5------|
g|-8--8--8--8-8------------5--5--8--8-5------|
C|-8--8-------8------------5--5-------5------|

(BRIDGE)

[GUITAR 1]
d|----------------------------------------------------------|
a|----------------------------------------------------------|
f|----------------------------------------------------------|
c|-0--0--0--10---10--10--0--0---0--10--10--10---0--0--0-----|
g|-0--0--0---8----8---8--0--0---0---8---8---8---0--0--0-----|
C|-0--0--0---------------0--0---0---------------0--0--0-----|

[GUITAR 2]
d|----------------------------------------------------------|
a|----------------------------------------------------------|
f|----------------------------------------------------------|
c|-0--0--0--10---10--10--0--0---0--10--10--10---0--0--0-----|
g|-0--0--0---8----8---8--0--0---0---8---8---8---0--0--0-----|
C|-0--0--0---------------0--0---0---------------0--0--0-----|

[GUITAR 1]
d|-------------------------------------------------|
a|-------------------------------------------------|
f|-------------------------------------------------|
c|-8--8--8--8--8--8--8--5--5--5--5--5--5--5--5-----|
g|-8--8--8--8--8--8--8--5--5--5--5--5--5--5--5-----|
C|-8--8--8--8--8--8--8--5--5--5--5--5--5--5--5-----|


[GUITAR 2]
d|-------------------------------------------------|
a|-------------------------------------------------|
f|-------------------------------------------------|
c|-8--8--8--8--8--8--8--5--5--5--5--5--5--5--5-----|
g|-8--8--8--8--8--8--8--5--5--5--5--5--5--5--5-----|
C|-8--8--8--8--8--8--8--5--5--5--5--5--5--5--5-----|


[GUITAR 1]
d|----------------------------------------------------------|
a|----------------------------------------------------------|
f|----------------------------------------------------------|
c|-0--0--0--10---10--10--0--0---0--10--10--10---0--0--0-----|
g|-0--0--0---8----8---8--0--0---0---8---8---8---0--0--0-----|
C|-0--0--0---------------0--0---0---------------0--0--0-----|

[GUITAR 2]
d|----------------------------------------------------------|
a|----------------------------------------------------------|
f|----------------------------------------------------------|
c|-0--0--0--10---10--10--0--0---0--10--10--10---0--0--0-----|
g|-0--0--0---8----8---8--0--0---0---8---8---8---0--0--0-----|
C|-0--0--0---------------0--0---0---------------0--0--0-----|

[GUITAR 1]
d|-------------------------------------------------|
a|-------------------------------------------------|
f|-------------------------------------------------|
c|-8--8--8--8--8--8--8--5--5--5--5--5--5--5--5-----|
g|-8--8--8--8--8--8--8--5--5--5--5--5--5--5--5-----|
C|-8--8--8--8--8--8--8--5--5--5--5--5--5--5--5-----|


[GUITAR 2]
d|-------------------------------------------------|
a|-------------------------------------------------|
f|-------------------------------------------------|
c|-8--8--8--8--8--8--8--5--5--5--5--5--5--5--5-----|
g|-8--8--8--8--8--8--8--5--5--5--5--5--5--5--5-----|
C|-8--8--8--8--8--8--8--5--5--5--5--5--5--5--5-----|

(BREAKDOWN)
(AUTHOR'S NOTE: When you see, [#] It's an Artificial Harmonic
and the ~~~ Is for Vibrato)


[GUITAR 1]
   PM------------|                PM-------------------------------|
d|-----------------------------------------------------------------|
a|-----------------------------------------------------------------|
f|-----------------------------------------------------------------|
c|-0-0-0-0-0-0-0-0--10-10---------0-0-0-0-0-0-0-0--0-2-3-0-2-------|
g|-0-0-0-0-0-0-0-0---8--8---------0-0-0-0-0-0-0-0------------------|
C|-0-0-0-0-0-0-0-0----------------0-0-0-0-0-0-0-0------------------|

[GUITAR 2]
   PM------------|                PM-------------------------------|
d|-----------------------------------------------------------------|
a|-----------------------------------------------------------------|
f|-----------------------------------------------------------------|
c|-0-0-0-0-0-0-0-0--10-10---------0-0-0-0-0-0-0-0--0-2-3-0-2-------|
g|-0-0-0-0-0-0-0-0---8--8---------0-0-0-0-0-0-0-0------------------|
C|-0-0-0-0-0-0-0-0----------------0-0-0-0-0-0-0-0------------------|

[GUITAR 1]
   PM------------|                PM------------|           ~~~-----|
d|------------------------------------------------------------------|
a|------------------------------------------------------------------|
f|------------------------------------------------------------------|
c|-8-8-8-8-8-8-8-8--10--10--------8-8-8-8-8-8-8-8----------[2]------|
g|-8-8-8-8-8-8-8-8---8---8--------8-8-8-8-8-8-8-8-------------------|
C|-8-8-8-8-8-8-8-8----------------8-8-8-8-8-8-8-8--0-2-3-0----------|

[GUITAR 2]
   PM------------|                PM--------------------------------|
d|------------------------------------------------------------------|
a|------------------------------------------------------------------|
f|------------------------------------------------------------------|
c|-8-8-8-8-8-8-8-8--10--10--------8-8-8-8-8-8-8-8-------------------|
g|-8-8-8-8-8-8-8-8---8---8--------8-8-8-8-8-8-8-8-------------------|
C|-8-8-8-8-8-8-8-8----------------8-8-8-8-8-8-8-8--0-2-3-0--2-------|


[GUITAR 1]
   PM------------|                PM-------------------------------|
d|-----------------------------------------------------------------|
a|-----------------------------------------------------------------|
f|-----------------------------------------------------------------|
c|-0-0-0-0-0-0-0-0--10-10---------0-0-0-0-0-0-0-0--0-2-3-0-2-------|
g|-0-0-0-0-0-0-0-0---8--8---------0-0-0-0-0-0-0-0------------------|
C|-0-0-0-0-0-0-0-0----------------0-0-0-0-0-0-0-0------------------|

[GUITAR 2]
   PM------------|                PM-------------------------------|
d|-----------------------------------------------------------------|
a|-----------------------------------------------------------------|
f|-----------------------------------------------------------------|
c|-0-0-0-0-0-0-0-0--10-10---------0-0-0-0-0-0-0-0--0-2-3-0-2-------|
g|-0-0-0-0-0-0-0-0---8--8---------0-0-0-0-0-0-0-0------------------|
C|-0-0-0-0-0-0-0-0----------------0-0-0-0-0-0-0-0------------------|


[GUITAR 1]
   PM------------|                PM-----------------------------|
d|---------------------------------------------------------------|
a|---------------------------------------------------------------|
f|---------------------------------------------------------------|
c|-8-8-8-8-8-8-8-8--10--10--------8-8-8-8-8-8-8-8---0-0--0-------|
g|-8-8-8-8-8-8-8-8---8---8--------8-8-8-8-8-8-8-8---0-0--0-------|
C|-8-8-8-8-8-8-8-8----------------8-8-8-8-8-8-8-8---0-0--0-------|

[GUITAR 2]
   PM------------|                PM-----------------------------|
d|---------------------------------------------------------------|
a|---------------------------------------------------------------|
f|---------------------------------------------------------------|
c|-8-8-8-8-8-8-8-8--10--10--------8-8-8-8-8-8-8-8---0-0--0-------|
g|-8-8-8-8-8-8-8-8---8---8--------8-8-8-8-8-8-8-8---0-0--0-------|
C|-8-8-8-8-8-8-8-8----------------8-8-8-8-8-8-8-8---0-0--0-------|


(SOLO)


(By the way, [GUITAR 2] plays this..
[GUITAR 2]
d|-----------------------------------------------------------|
a|-----------------------------------------------------------|
f|-----------------------------------------------------------|
c|--0--0-0--0-8---0-0--0-7--10---0--0-0--0-8---0-0--0-7--10--|
g|--0--0-0--0-8---0-0--0-7--10---0--0-0--0-8---0-0--0-7--10--|
C|--0--0-0--0-8---0-0--0-7--10---0--0-0--0-8---0-0--0-7--10--|



[GUITAR 1
d|--------------------------------------------|
a|--------------------------------------------|
f|--7-10-9-10----10-12-14-12-10-12--14-15-17--|
c|--------------------------------------------|
g|--------------------------------------------|
C|--------------------------------------------|

(ENDING CHORUS & OUTRO)




[GUITAR 1&2]

  ...


"So save yourself--"
[GUITAR 1]
d|-----------------------------------------------------------------|
a|-----------------------------------------------------------------|
f|------10--10-------10--10----9--------10--10-------10--10----12--|
c|-0--0--X--1X-0---0--X---X-0--X---0--0--X---X-0---0--X---X-0---X--|
g|-0--0--8---8-0---0--8---8-0--7---0--0--8---8-0---0--8---8-0--10--|
C|-0--0--------0---0--------0------0--0--------0---0--------0------|

[GUITAR 2]
d|-----------------------------------------------------------------|
a|-----------------------------------------------------------------|
f|------10--10-------10--10----9--------10--10-------10--10----12--|
c|-0--0-10--10-0---0-10--10-0--9---0--0-10--10-0---0-10--10-0--12--|
g|-0--0--8---8-0---0--8---8-0--7---0--0--8---8-0---0--8---8-0--10--|
C|-0--0--------0---0--------0------0--0--------0---0--------0------|

[GUITAR 1]
d|-------------------------------------------|
a|-------------------------------------------|
f|------10-10-------------------10-10--------|
c|-8--8-10-10-8------------5--5-10-10-5------|
g|-8--8--8--8-8------------5--5--8--8-5------|
C|-8--8-------8------------5--5-------5------|


[GUITAR 2]
d|-------------------------------------------|
a|-------------------------------------------|
f|------10-10-------------------10-10--------|
c|-8--8-10-10-8------------5--5-10-10-5------|
g|-8--8--8--8-8------------5--5--8--8-5------|
C|-8--8-------8------------5--5-------5------|

[GUITAR 1]
d|-----------------------------------------------------------------|
a|-----------------------------------------------------------------|
f|------10--10-------10--10----9--------10--10-------10--10----12--|
c|-0--0--X--1X-0---0--X---X-0--X---0--0--X---X-0---0--X---X-0---X--|
g|-0--0--8---8-0---0--8---8-0--7---0--0--8---8-0---0--8---8-0--10--|
C|-0--0--------0---0--------0------0--0--------0---0--------0------|

[GUITAR 2]
d|-----------------------------------------------------------------|
a|-----------------------------------------------------------------|
f|------10--10-------10--10----9--------10--10-------10--10----12--|
c|-0--0-10--10-0---0-10--10-0--9---0--0-10--10-0---0-10--10-0--12--|
g|-0--0--8---8-0---0--8---8-0--7---0--0--8---8-0---0--8---8-0--10--|
C|-0--0--------0---0--------0------0--0--------0---0--------0------|

[GUITAR 1]
d|-----------------------------------------------|
a|-----------------------------------------------|
f|------10-10-------------------10-10------------|
c|-8--8--X--X-8------------5--5--X--X-5-5-5--3---|
g|-8--8--8--8-8------------5--5--8--8-5-5-5--3---|
C|-8--8-------8------------5--5-------5-5-5--3---|

[GUITAR 2]
d|-----------------------------------------------|
a|-----------------------------------------------|
f|------10-10-------------------10-10------------|
c|-8--8--X--X-8------------5--5--X--X-5-5-5--3---|
g|-8--8--8--8-8------------5--5--8--8-5-5-5--3---|
C|-8--8-------8------------5--5-------5-5-5--3---|

[GUITAR 1]
d|------------------------------------------------------|
a|------------------------------------------------------|
f|------------------------------------------------------|
c|-0--0--0--10---10--10--0--0---0--10--10--10---0-------|
g|-0--0--0---8----8---8--0--0---0---8---8---8---0-------|
C|-0--0--0---------------0--0---0---------------0-------|

[GUITAR 2]
d|------------------------------------------------------|
a|------------------------------------------------------|
f|------------------------------------------------------|
c|-0--0--0--10---10--10--0--0---0--10--10--10---0-------|
g|-0--0--0---8----8---8--0--0---0---8---8---8---0-------|
C|-0--0--0---------------0--0---0---------------0-------|

[GUITAR 1]
   PM--------|              PM---------------------------|
d|-------------------------------------------------------|
a|-------------------------------------------------------|
f|-------------------------------------------------------|
c|-0-0-0-0-0-0-10---10--10--0-0-0-0--0-0-0-0---0---------|
g|-0-0-0-0-0-0--8----8---8--0-0-0-0--0-0-0-0---0--RING---|
C|-0-0-0-0-0-0--------------0-0-0-0--0-0-0-0---0---------|

[GUITAR 1]
   PM--------|              PM---------------------------|
d|-------------------------------------------------------|
a|-------------------------------------------------------|
f|-------------------------------------------------------|
c|-0-0-0-0-0-0-10---10--10--0-0-0-0--0-0-0-0---0---------|
g|-0-0-0-0-0-0--8----8---8--0-0-0-0--0-0-0-0---0--RING---|
C|-0-0-0-0-0-0--------------0-0-0-0--0-0-0-0---0---------|


7. Still Searching

no, no really no.

8. To All The Crowded Rooms

intro:
e]-------------------------------|
b]-------------------------------|
g]-------------------------------|
d]0-0-0--0-0-0--9-9-9-7-5-5-5----|    (x2)
a]0-0-0--0-0-0--9-9-9-7-5-5-5----|
D]0-0-0--0-0-0--9-9-9-7-5-5-5----|
Chorus:
e]---------------------------------|
b]---------------------------------|
g]---------------------------------|
d]0-0-0--0-0-0--4-4-44--4-4-4------|
a]0-0-0--0-0-0--4-4-44--4-4-4------|      (x2)
D]0-0-0--0-0-0--4-4-44--4-4-4------|

e]-----------------|
b]-----------------|
g]-----------------|
d]9-9-9-7-5-5-5----|    (x2)
a]9-9-9-7-5-5-5----|
D]9-9-9-7-5-5-5----|

after the second time go straight to:

e]--------------|
b]--------------|
g]--------------|
d]2-2-2-3-5-5-5-|
a]2-2-2-3-5-5-5-|
D]2-2-2-3-5-5-5-|
Then repeat from Intro to here then back to intro [x4].
After you do that the lead guitar will do:
e]-----------|
b]2b-2b-2b-2-|
g]-----------|
d]-----------|
a]-----------|
D]-----------|

Right when singer says "ill give blood"  start right when he starts singing at chorus.
And thats all i got.  It's sounds almost 100% correct.  Any questions or comments e-mail 
at:  lineandsinkerxxx@aim.com

Thanks, enjoy.


9. Lost And Found

Drop D

Intro and Verse(0:00) (you cant hear some of these notes very well)
|----------------1----------1-|
|----3-----6------3------1-1--|
|--3-----3-----3---3---2--2---|
|-5-3---3-3---1-1-----3-3-----|
|-----------------------------|
|-----------------------------|

(0:31)
|-------------------------------------------|
|-------------------------------------------|
|-3-/-5-/-7-/-8-/-7~-3-/-5-/-7-/-8-/-7-/-5~-|
|-x-/-x-/-x-/-x-/-x~-x-/-x-/-x-/-x-/-x-/-x~-|
|-1-/-3-/-5-/-6-/-5~-1-/-3-/-5-/-6-/-5-/-3~-|
|-------------------------------------------|

Verse Part 2 (0:48)
|-------1~-1~-|
|-3~-6~-3~-1~-|
|-3~-3~-3~-2~-|
|-5~-3~-1~-3~-|
|-------------|
|-------------|

Pre Chorus (1:05)
|--------------------------------------------------|
|---------------------------------------------------|
|-8888888888888888-10101010101010101010101010101010-|
|-8888888888888888-10101010101010101010101010101010-|
|-6666666666666666--8-8-8-8-8-8-8-8-8-8-8-8-8-8-8-8-|
|---------------------------------------------------|
  ................  . . . . . . . . . . . . 

Chorus (1:13) (not exact strumming) (guitar 1)
|----------------------------------------|
|----------------------------------------|
|33333333333333-555-777777-1010-22222222-|
|xxxxxxxxxxxxxx-xxx-xxxxxx--x-x-xxxxxxxx-|
|11111111111111-333-555555--8-8-00000000-|
|----------------------------------------|

(guitar 2)
|-------------------------------------|
|-------------------------------------|
|-------------------33333333----------|
|-55555555-11111111-33333333-00000000-|
|-55555555-11111111-11111111-00000000-|
|-55555555-11111111----------00000000-|

Post Chorus (1:29) (guitar 1)
|-------------------------------------------|
|-------------------------------------------|
|-3-/-5-/-7-/-8-/-7~-3-/-5-/-7-/-8-/-7-/-5~-|
|-x-/-x-/-x-/-x-/-x~-x-/-x-/-x-/-x-/-x-/-x~-|
|-1-/-3-/-5-/-6-/-5~-1-/-3-/-5-/-6-/-5-/-3~-|
|-------------------------------------------|

(guitar 2)
|-------1~-1~-|
|-3~-6~-3~-1~-|
|-3~-3~-3~-2~-|
|-5~-3~-1~-3~-|
|-------------|
|-------------|

2nd Verse (1:45) (it’s a mix of these chords palm muted and open) (guitar 1)
|-----1-1-|
|-3-6-3-1-|
|-3-3-3-2-|
|-5-3-1-3-|
|---------|
|---------|

(guitar 2)
|-------1~-1~-|
|-3~-6~-3~-1~-|
|-3~-3~-3~-2~-|
|-5~-3~-1~-3~-|
|-------------|
|-------------|

Pre Chorus (2:01) (not 100% sure about this part) (guitar 1)
|---------|             |---11-|
|----6----|             |66-11-|
|--3--3-3-|Play     Then|33-22-|
|-5-5--5--|3 Times  Play|55-33-|
|---------|             |------|
|---------|             |------|

(guitar 2)
|------------------|     |-----------|
|------------------|     |-----------|
|-8-Strum-10-Strum-| Then|-1010-1010-|
|-8-16----10-8-----| Play|-1010-1010-|
|-6-Times--8-Times-|     |--8-8--8-8-|
|------------------|     |-----------|
  .        .

Chorus (2:09) (guitar 1)
|----------------------------------------|
|----------------------------------------|
|33333333333333-555-777777-1010-22222222-|
|xxxxxxxxxxxxxx-xxx-xxxxxx--x-x-xxxxxxxx-|
|11111111111111-333-555555--8-8-00000000-|
|----------------------------------------|

(guitar 2)
|-------------------------------------|
|-------------------------------------|
|-------------------33333333----------|
|-55555555-11111111-33333333-00000000-|
|-55555555-11111111-11111111-00000000-|
|-55555555-11111111----------00000000-|

Bridge (2:42)
|------------------------------------|
|------------------------------------|
|-5555555555555555-------------------|
|-5555555555555555-55xxx333-55xxx333-|
|-3333333333333333-55xxx333-55xxx333-|
|------------------55xxx333-55xxx333-|

Pre Chorus (2:58)
|-------------------------------------------------------------|
|-------------------------------------------------------------|
|-55555555-77777777-88888888-10101010101010101010101010101010-|
|-xxxxxxxx-xxxxxxxx-xxxxxxxx--x-x-x-x-x-x-x-x-x-x-x-x-x-x-x-x-|
|-33333333-55555555-66666666--8-8-8-8-8-8-8-8-8-8-8-8-8-8-8-8-|
|-------------------------------------------------------------|

Chorus (3:09) (guitar 1)
|----------------------------------------|
|----------------------------------------|
|33333333333333-555-777777-1010-22222222-|
|xxxxxxxxxxxxxx-xxx-xxxxxx--x-x-xxxxxxxx-|
|11111111111111-333-555555--8-8-00000000-|
|----------------------------------------|

(guitar 2)
|-------------------------------------|
|-------------------------------------|
|-------------------33333333----------|
|-55555555-11111111-33333333-00000000-|
|-55555555-11111111-11111111-00000000-|
|-55555555-11111111----------00000000-|


10. Everyday Is A Struggle

Again, no.

11. All The Best Cowboys Have Daddy Issues




Update [11.20.06] - 
Spelling errors and tabbing errors.
Author's Note [10.20.06] - 
I was tabbing this sucker and found out that I was doing the lead parts all wrong, and I
did it, problem is, it's a bitch to tab out (and I'm extra lazy). So I'll post what I
know. If Ultimate-Guitar.com does not update it quick enough you will get this a day late 
and possibly (or possibly not) see this message, if you're seeing this message, then it
didn't update yet. I gladly appreciate any comments (problem is Ultimate-Guitar doesn't 
let me comment or send messages) so comment all you want, just don't rate an unfinished 
product, I think it's not fair.
Author's note [10.18.06] - 
Took me a while to get this, I haven't found anything so far on U-G so I tabbed it myself.
I'm almost certain this isn't fully correct, but ofcourse the whole thing about Ultimate-
Guitar is that you tab your version of something. And for some reason Ultimate-Guitar
Doesn't let me comment at all, whatever.

If you know a better way to play this,send it and I'll add it, it's for the good of 
Senses Fail fans everywhere!


All guitars in Drop-D Tuning

[Guitars will be identified as - 1 = Lead
                               - 2 = Rhythm
pressumably of cource.]

[VERSE]

Lead & Rhythm

E|-----------------------------------------------|
B|-----------------------------------------------|
G|-----------------------------------------------|
D|----4------4---4-----4-----4------4---4-----4--|
A|--2---2--2---2---2-2-----2---2--2---2---2-2----|
D|-----------------------------------------------|
                   PM-                    PM-

E|-----------------------------------------------|      E|-----------------------------------------------|
B|-----------------------------------------------|      B|---------------------0--------------------0----|
G|---------------------4--------------------4----|  Or  G|-----------------------------------------------|
D|----5------5---5-----------5------5---5-----5--|      D|----5------5---5-----------5------5---5-----5--|
A|--3---3--3---3---3-3-----3---3--3---3---3------|      A|--3---3--3---3---3-3-----3---3--3---3---3------|
D|-----------------------------------------------|      D|-----------------------------------------------|
                   PM-                    PM-                              PM                     PM-

E|-----------------------------------------------|
B|-----------------------------------------------|
G|-----------------------------------------------|
D|----4------4---4-----4-----4------4---4-----4--|
A|--2---2--2---2---2-2-----2---2--2---2---2-2----|
D|-----------------------------------------------|
                   PM-                    PM-
[PRE CHORUS]

Rhythm

E|--------------------------------------|
B|--------------------------------------|
G|--55555-5555555555--77777-7777777777--|
D|--55555-5555555555--77777-7777777777--|
A|--33333-3333333333--55555-5555555555--|
D|--------------------------------------|

Lead

E|--------------------------------------|
B|--------------------------------------|
G|--55545-5555554555--77757-7777775777--|
D|--XXXXX-XXXXXXXXXX--XXXXX-XXXXXXXXXX--|
A|--33323-3333332333--55535-5555553555--|
D|--------------------------------------|

[CHORUS]

Rhythm
(Play this twice)
E|----------------------------------------------------------------------|
B|----------------------------------------------------------------------|
G|----------------------------------------------------------------------|
D|-2222222222222222-5555555555555555-0000000000000000-7777777777777777--|
A|-2222222222222222-5555555555555555-0000000000000000-7777777777777777--|
D|-2222222222222222-5555555555555555-0000000000000000-7777777777777777--|


Lead

//The Chorus parts for the lead is a little hard to make out, if anyone has it
share, if not I'll do my best to try and figure it out and post it post haste.//

[VERSE]

Lead & Rhythm

E|-----------------------------------------------|
B|-----------------------------------------------|
G|-----------------------------------------------|
D|----4------4---4-----4-----4------4---4-----4--|
A|--2---2--2---2---2-2-----2---2--2---2---2-2----|
D|-----------------------------------------------|
                   PM-                    PM-

E|-----------------------------------------------|      E|-----------------------------------------------|
B|-----------------------------------------------|      B|---------------------0--------------------0----|
G|---------------------4--------------------4----|  Or  G|-----------------------------------------------|
D|----5------5---5-----------5------5---5-----5--|      D|----5------5---5-----------5------5---5-----5--|
A|--3---3--3---3---3-3-----3---3--3---3---3------|      A|--3---3--3---3---3-3-----3---3--3---3---3------|
D|-----------------------------------------------|      D|-----------------------------------------------|
                   PM-                    PM-                              PM-                    PM-


E|-----------------------------------------------|
B|-----------------------------------------------|
G|-----------------------------------------------|
D|----4------4---4-----4-----4------4---4-----4--|
A|--2---2--2---2---2-2-----2---2--2---2---2-2----|
D|-----------------------------------------------|
                   PM-                    PM-

E|-----------------------------------------------|      E|-----------------------------------------------|
B|-----------------------------------------------|      B|---------------------0--------------------0----|
G|---------------------4--------------------4----|  Or  G|-----------------------------------------------|
D|----5------5---5-----------5------5---5-----5--|      D|----5------5---5-----------5------5---5-----5--|
A|--3---3--3---3---3-3-----3---3--3---3---3------|      A|--3---3--3---3---3-3-----3---3--3---3---3------|
D|-----------------------------------------------|      D|-----------------------------------------------|
                   PM-                    PM-                              PM-                    PM-

[PRE CHORUS]
Rhythm
    "I'm not waiting,  I'm not Waiting!"
E|-----------------------------------------------|
B|-----------------------------------------------|
G|-----------------------------------------------|
D|--2--Hold--------------------------------------|
A|--2--------------------------------------------|
D|--2------------------22222222------------------|
                       PM-----|

[CHORUS]

Rhythm
//Play this twice//
E|----------------------------------------------------------------------|
B|----------------------------------------------------------------------|
G|----------------------------------------------------------------------|
D|-2222222222222222-5555555555555555-0000000000000000-7777777777777777--|
A|-2222222222222222-5555555555555555-0000000000000000-7777777777777777--|
D|-2222222222222222-5555555555555555-0000000000000000-7777777777777777--|


Lead

[BRIDGE]

Lead & Rhythm

E|-------------------------------------------------------------------------|
B|-------------------------------------------------------------------------|
G|--5555555555555555-7777777777777777--------------------------------------|
D|--5555555555555555-7777777777777777---2--------5--------0--------7-------|
A|--3333333333333333-5555555555555555---2--Hold--5--hold--0--hold--7-hold--|
D|--------------------------------------2--------5--------0--------7-------|

Rhythm

E|--------------------------------------|
B|--------------------------------------|
G|--------------------------------------|
D|--2--------5--------0--------7--------|
A|--2--hold--5--hold--0--hold--7--hold--|
D|--2--------5--------0--------7--------|

12. Negative Space

13. The Priest And The Matador

Sorry


            
            
Suggest correction
Creating personal tab
Creating personal tab
You can edit any tab online and save it as your Personal.

You can edit, replace or remove any tab part or add personal notes – all changes will be seen only by you.

Personal tabs can be accessed anytime from any device, even offline.
Learn more »
comments
print report bad tab
8 comments total. Showing first comments.
+1 reply
lost in 3 words 60 Jan 26, 2007 05:19 AM

thanks for actually tabbing sick or sane by yourself and not stealing my version COUGH SARCASM COUGH COUGH

0 reply
FinderofNemo 337 Feb 19, 2007 01:31 PM

He Copied Everyone's Tabs..

0 reply
Yozoniac 176 Feb 26, 2007 04:52 PM

Wow, not bad, by the way I changed my version of "Shark Attack" and "All the Best Cowboys" revise if you wish.

guest
You may want to rate the tab now too:
select rating
Wanna post a correction for this tab? Suggest correction