Oops, an error
Loading. Please wait.

Still Searching bass

version 1
version 1

Whole song

Interactive

1,218 views 1 this week
4 commentsread comments
1 2 3 4 5
3 more votes to show rating
add to favorites
×
Save as Personal and add changes to this tab that will be seen only by you. Learn more ›
×
You can save this tab as Personal to edit and correct it or add notes. All changes will be seen only by you. Learn more »
launch autoscroll
font size
0
reset
guitar tuner
edit
Autoscroll
slow
fast
+/-
esc
set tempo
stop
  Still Searching                                 


                                                                     
Senses Fail
Bass



                                     W                   H.           Q     
G||-------|-------|-------|-------|-------------------|--------------------|
D||-------|-------|-------|-------|-------------------|--------------------|
A||-------|-------|-------|-------|-------------------|--------------------|
D||-------|-------|-------|-------|--4----------------|--L------------2----|


  W                   H.           Q       Q    Q    Q    Q     
-------------------|--------------------|----------------------|
-------------------|--------------------|----------------------|
-------------------|--------------------|----------------------|
--4----------------|--L------------2----|--4----4----4----4----|


  Q    Q    Q    Q       Q    Q    Q    Q       Q    Q    Q    Q     
----------------------|----------------------|----------------------|
----------------------|----------------------|----------------------|
----------------------|----------------------|----------------------|
--4----4----4----2----|--4----4----4----4----|--4----4----4----2----|


  E  E  E  E  E  E  E  E     E  E  E  E  E  E  E  E   
--------------------------|--------------------------|
--------------------------|--------------------------|
--------------------------|--------------------------|
--4--4-----4-----4--4--4--|--4--4-----4-----4--2--2--|


  E  E  E  E  E  E  E  E     E  E  E  E  E  E  E  E   
--------------------------|--------------------------|
--------------------------|--------------------------|
--------------------------|--------------------------|
--0--0-----0-----0--0--0--|--0--0-----0-----0--2--2--|


  E  E  E  E  E  E  E  E     E  E  E  E  E  E  E  E   
--------------------------|--------------------------|
--------------------------|--------------------------|
--------------------------|--------------------------|
--4--4-----4-----4--4--4--|--4--4-----4-----4--2--2--|


  E  E  E  E  E  E  E  E     E  E  E  E  E  E  E  E     W                 
--------------------------|--------------------------|-------------------|
--------------------------|--------------------------|-------------------|
--------------------------|--------------------------|-------------------|
--0--0-----0-----0--0--0--|--0--0-----0-----0--2--2--|--0----------------|


  H        H           W                   H        H         
--------------------|-------------------|--------------------|
--------------------|-------------------|--------------------|
--------------------|-------------------|--------------------|
--2--------4--------|--0----------------|--2--------3--------|


  H        Q    Q       H        H           H        H         
---------------------|--------------------|--------------------|
---------------------|--------------------|--------------------|
---------------------|--0--------0--------|--------------------|
--4--------4----6----|--------------------|--2--------2--------|


  H        H           H        Q    Q       H        H         
--------------------|---------------------|--------------------|
--------------------|---------------------|--------------------|
--------------------|---------------------|--0--------0--------|
--0--------3--------|--4--------4----6----|--------------------|


  H        H           H        H           E  E  E  E  E  E  E  E   
--------------------|--------------------|--------------------------|
--------------------|--------------------|--------------------------|
--------------------|--------------------|--------------------------|
--2--------2--------|--0--------3--------|--4-----4-----4-----4-----|


  E  E  E  E  H           E  E  E  E  E  E  E  E     E  E  E  E  E  E  
E  E   
-----------------------|--------------------------|--------------------------|
-----------------------|--------------------------|--------------------------|
-----------------------|--------------------------|--------------------------|
--4-----4-----0--------|--4--4-----4-----4--4--4--|--4--4-----4-----4--2--2--|


  E  E  E  E  E  E  E  E     E  E  E  E  E  E  E  E   
--------------------------|--------------------------|
--------------------------|--------------------------|
--------------------------|--------------------------|
--0--0-----0-----0--0--0--|--0--0-----0-----0--2--2--|


  E  E  E  E  E  E  E  E     E  E  E  E  E  E  E  E   
--------------------------|--------------------------|
--------------------------|--------------------------|
--------------------------|--------------------------|
--4--4-----4-----4--4--4--|--4--4-----4-----4--2--2--|


  E  E  E  E  E  E  E  E     E  E  E  E  E  E  E  E     W                 
--------------------------|--------------------------|-------------------|
--------------------------|--------------------------|-------------------|
--------------------------|--------------------------|-------------------|
--0--0-----0-----0--0--0--|--0--0-----0-----0--2--2--|--0----------------|


  H        H           W                   H        H         
--------------------|-------------------|--------------------|
--------------------|-------------------|--------------------|
--------------------|-------------------|--------------------|
--2--------4--------|--0----------------|--2--------3--------|


  H        Q    Q       H        H           H        H         
---------------------|--------------------|--------------------|
---------------------|--------------------|--------------------|
---------------------|--0--------0--------|--------------------|
--4--------4----6----|--------------------|--2--------2--------|


  H        H           H        Q    Q       H        H         
--------------------|---------------------|--------------------|
--------------------|---------------------|--------------------|
--------------------|---------------------|--0--------0--------|
--0--------3--------|--4--------4----6----|--------------------|


  H        H           H        H           Q    E  Q    E  Q     
--------------------|--------------------|-----------------------|
--------------------|--------------------|-----------------------|
--------------------|--------------------|-----------------------|
--2--------2--------|--0--------3--------|--4----4--4----4--4----|


  Q    E  Q    E  Q       Q    E  Q    E  Q       Q    E  Q    E  Q     
-----------------------|-----------------------|-----------------------|
-----------------------|-----------------------|-----------------------|
-----------------------|--0----0--0----0--0----|--2----2--2----2--2----|
--0----0--0----0--0----|-----------------------|-----------------------|


  Q    E  Q    E  Q       Q    E  Q    E  Q       Q    E  Q    E  Q     
-----------------------|-----------------------|-----------------------|
-----------------------|-----------------------|-----------------------|
-----------------------|-----------------------|--0----0--0----0--0----|
--4----4--4----4--4----|--0----0--0----0--0----|-----------------------|


  Q    E  Q    E  Q       E  E  E  E  E  E  E  E     E  E  E  E  E  E  
E  E   
-----------------------|--------------------------|--------------------------|
-----------------------|--------------------------|--------------------------|
--2----2--2----2--2----|--------------------------|--------------------------|
-----------------------|--4-----4-----4-----4-----|--4-----4-----4-----4-----|


  E  E  E  E  E  E  E  E     E  E  E  E  S. S. S S. S. S    W                 
--------------------------|------------------------------|-------------------|
--------------------------|------------------------------|-------------------|
--------------------------|------------------------------|-------------------|
--4-----4-----4-----4-----|--4-----4-----9--7--6-7--6--4-|--0----------------|


  W                                                   W                 
-------------------|-------|-------|-------|-------|-------------------|
-------------------|-------|-------|-------|-------|-------------------|
-------------------|-------|-------|-------|-------|-------------------|
--L----------------|-------|-------|-------|-------|--4----------------|


  H.           Q       W                   H.           Q     
--------------------|-------------------|--------------------|
--------------------|-------------------|--------------------|
--------------------|-------------------|--------------------|
--L------------7----|--0----------------|--L------------2----|


  S S S S S S S S S S E  Q       E  E  S E  S E  Q.      
------------------------------|-------------------------|
------------------------------|-------------------------|
------------------------------|-------------------------|
--4-4-4-4-4-4-4-4-4-----------|-----4----4----4---------|


  S S S S S S S S S S E  Q       E  E  S E  S S S S S S S S S  
------------------------------|-------------------------------|
------------------------------|-------------------------------|
------------------------------|-------------------------------|
--3-3-3-3-3-3-3-3-3-----------|-----3----3----3-3-3-3-3-3-3-3-|


  S S S S S S S S S S E  Q       E  E  S E  S E  Q.      
------------------------------|-------------------------|
------------------------------|-------------------------|
------------------------------|-------------------------|
--2-2-2-2-2-2-2-2-2-----------|-----2----2----2---------|


  S S S S S S S S S S E  Q       E  E  S E  S S S S S S S S S  
------------------------------|-------------------------------|
------------------------------|-------------------------------|
------------------------------|-------------------------------|
--1-1-1-1-1-1-1-1-1-----------|-----1----1----1-1-1-1-1-1-1-1-|


  S S S S S S S S S S E  Q       E  E  S E  S E  Q.      
------------------------------|-------------------------|
------------------------------|-------------------------|
------------------------------|-------------------------|
--4-4-4-4-4-4-4-4-4-----------|-----4----4----4---------|


  S S S S S S S S S S E  Q       E  E  S E  S S S S S S S S S  
------------------------------|-------------------------------|
------------------------------|-------------------------------|
------------------------------|-------------------------------|
--3-3-3-3-3-3-3-3-3-----------|-----3----3----3-3-3-3-3-3-3-3-|


  S S S S S S S S S S E  Q       E  E  S E  S E  Q.      
------------------------------|-------------------------|
------------------------------|-------------------------|
------------------------------|-------------------------|
--2-2-2-2-2-2-2-2-2-----------|-----2----2----2---------|


  S S S S S S S S S S E  Q       E  E  S E  S S S S S S S S S  
------------------------------|-------------------------------|
------------------------------|-------------------------------|
------------------------------|-------------------------------|
--1-1-1-1-1-1-1-1-1-----------|-----1----1----1-1-1-1-1-1-1-1-|


  S S S S S S S S S S S S S S S S    S S S S S S S S S S S S E  E   
----------------------------------|--------------------------------|
----------------------------------|--------------------------------|
----------------------------------|--------------------------------|
--4-4---4-4---4-4---4-4---4-4---4-|--4---4-4---4-4---4-4-L-L-7--L--|


  S S S S S S S S S S S S S S S S    S S S S S S S S S S S S E  E   
----------------------------------|--------------------------------|
----------------------------------|--------------------------------|
----------------------------------|--------------------------------|
--0-0---0-0---0-0---0-0---0-0---0-|--0---0-0---0-0---0-0-L-L-2--L--|


  S S S S S S S S S S S S S S S S    S S S S S S S S S S S S E  E   
----------------------------------|--------------------------------|
----------------------------------|--------------------------------|
----------------------------------|--------------------------------|
--4-4---4-4---4-4---4-4---4-4---4-|--4---4-4---4-4---4-4-L-L-7--L--|


  S S S S S S S S S S S S S S S S    S S S S S S S S S S S S E  E   
----------------------------------|--------------------------------|
----------------------------------|--------------------------------|
----------------------------------|--------------------------------|
--0-0---0-0---0-0---0-0---0-0---0-|--0---0-0---0-0---0-0-L-L-2--L--|


  E  E  E  E  E  E  E  E     E  E  E  E  E  E  E  E   
--------------------------|--------------------------|
--------------------------|--------------------------|
--------------------------|--------------------------|
--4--4--4--4--4--4--4--4--|--6--6--6--6--7--7--7--7--|


  E  E  E  E  E  E  E  E      E   E   E   E   E   E   E   E   
--------------------------|----------------------------------|
--------------------------|----------------------------------|
--------------------------|----------------------------------|
--9--9--9--9--9--9--9--9--|--11--11--11--11--12--12--11--11--|


  E  E  E  E  E  E  E  E     E  E  E  E  E  E  E  E   
--------------------------|--------------------------|
--------------------------|--------------------------|
--------------------------|--------------------------|
--4--4--4--4--4--4--4--4--|--6--6--6--6--7--7--7--7--|


  E  E  E  E  E  E  E  E     E  E  E  E   E   E  E  E     Q    Q    Q    
Q     
--------------------------|----------------------------|----------------------|
--------------------------|----------------------------|----------------------|
--------------------------|----------------------------|----------------------|
--9--9--9--9--9--9--9--9--|--7--7--9--9--11--11--6--6--|--4----4----4----4----|


  Q    Q    Q    Q       Q    Q    Q    Q       Q    Q    Q    Q     
----------------------|----------------------|----------------------|
----------------------|----------------------|----------------------|
----------------------|----------------------|----------------------|
--4----4----4----4----|--3----3----3----3----|--3----3----3----3----|


  Q    Q    Q    Q       Q    Q    Q    Q       Q    Q    Q    Q     
----------------------|----------------------|----------------------|
----------------------|----------------------|----------------------|
----------------------|----------------------|----------------------|
--2----2----2----2----|--2----2----2----2----|--1----1----1----1----|


  Q    Q    Q    Q       Q    Q    Q    Q       Q    Q    Q    Q     
----------------------|----------------------|----------------------|
----------------------|----------------------|----------------------|
----------------------|----------------------|----------------------|
--1----1----1----1----|--4----4----4----4----|--4----4----4----4----|


  Q    Q    Q    Q       Q    Q    Q    Q       Q    Q    Q    Q     
----------------------|----------------------|----------------------|
----------------------|----------------------|----------------------|
----------------------|----------------------|----------------------|
--3----3----3----3----|--3----3----3----3----|--2----2----2----2----|


  Q    Q    Q    Q       Q    Q    Q    Q       Q    Q    Q    Q     
----------------------|----------------------|----------------------|
----------------------|----------------------|----------------------|
----------------------|----------------------|----------------------|
--2----2----2----2----|--1----1----1----1----|--1----1----1----1----|


  Q    Q    Q    Q       Q    Q    Q    Q       Q    Q    Q    Q     
----------------------|----------------------|----------------------|
----------------------|----------------------|----------------------|
----------------------|----------------------|----------------------|
--4----4----4----4----|--4----4----4----4----|--3----3----3----3----|


  Q    Q    Q    Q       Q    Q    Q    Q       Q    Q    Q    Q     
----------------------|----------------------|----------------------|
----------------------|----------------------|----------------------|
----------------------|----------------------|----------------------|
--3----3----3----3----|--2----2----2----2----|--2----2----2----2----|


  Q    Q    Q    Q       Q    Q    Q    Q      
----------------------|----------------------||
----------------------|----------------------||
----------------------|----------------------||
--1----1----1----1----|--1----1----1----1----||




Duration Legend
---------------
W - whole
H - half
Q - quarter
E - 8th
S - 16th
T - 32nd
X - 64th
. - note dotted
|-n-|  - n-tuplets


Tablature Legend
----------------
L - tied note
x - dead note
g - grace note
(n) - ghost note
> - accentuded note
NH - natural harmonic
AH - artificial harmonic
TH - tapped harmonic
SH - semi harmonic
PH - pitch harmonic
h - hammer on
p - pull off
b - bend
br - bendRelease
pb - preBend
pbr - preBendRelease
brb - bendReleaseBend
\n/ - tremolo bar dip
\n - tremolo bar dive
-/n - tremolo bar Release up
/n\ - tremolo bar inverted dip
/n - tremolo bar return
-\n - tremolo bar Release down
S - shift slide
s - legato slide
/ -  slide into from below or out of upwards
\ -  slide into from above or out of downwards
~ - vibrato
W - wide vibrato
tr - trill
TP - tremolo picking
T - tapping
S - slap
P - pop
< - fade in
^ - brush up
v - brush down

Plain Text Attachment [ Scan and Save to Computer | Save to Yahoo! Briefcase ] 

                                Still Searching                                 

Suggest correction
Creating personal tab
Creating personal tab
You can edit any tab online and save it as your Personal.

You can edit, replace or remove any tab part or add personal notes – all changes will be seen only by you.

Personal tabs can be accessed anytime from any device, even offline.
Learn more »
Give kudos to tab author, rate the tab!
1 2 3 4 5
comments
print report bad tab
4 comments total. Showing first comments.
0 reply
RaiLeff 12,922 Mar 02, 2007 01:21 PM

Nice, what tuning is that? :S
You only play fourth string?

+2 reply
danielitri-182 10 Mar 04, 2007 01:53 PM

this is insanely confusing

somebody please tab this in the normal way

0 reply
Navarre_Bassist 40 Jul 30, 2007 05:02 PM

this has to be wrong...Ive see nthe bass player. He used more than 1 string. This isnt Korn!

guest
You may want to rate the tab now too:
select rating
Wanna post a correction for this tab? Suggest correction