Oops, an error
Loading. Please wait.

Stretch Your Legs To Coffin Length tab

version 3
version 3

Whole song

796 views 3 this week
no commentswrite comment
1 2 3 4 5
2 more votes to show rating
add to favorites
×
Save as Personal and add changes to this tab that will be seen only by you. Learn more ›
×
You can save this tab as Personal to edit and correct it or add notes. All changes will be seen only by you. Learn more »
launch autoscroll
font size
0
reset
how to read this tab
guitar tuner
edit
Autoscroll
slow
fast
+/-
esc
set tempo
stop
-------------------------------------------------------------------------------
                Stretch Your Legs to Coffin Length - Senses Fail
-------------------------------------------------------------------------------
Tabbed by:Phat Stud 55
Email:phatstud55@gmail.com

Tuning:Drop D (DADGBE)

Lead on Top Rhythm on bottom.


Intro

Tremolo Pedal set to eighth note regen.
e|------------------|
B|---2-------3------|
G|------------------|x2
D|------------------|
A|------------------|
D|------------------|
______________________________________________

Verse 1
(tremolo still on lead guitar)
e|----------------------------------------------|
B|-2-----------3---------------2-----------3----|
G|----------------------------------------------|
D|----------------------------------------------|
A|----------------------------------------------|
D|----------------------------------------------|
 |
e|----------------------------------------------|
B|----------------------------------------------|
G|----------------------------------------------|
D|----------------------------------------------|
A|-9-9-9-7-9-9-9---------------9-9-9-7-9-9-9----|
D|-9-9-9-7-9-9-9---------------9-9-9-7-9-9-9----|

e|-2-----------------------------------------------------------|
B|-----------5---------3-------2-----------3--------2----------|
G|--------------------------------------------------------2----|
D|-------------------------------------------------------------|
A|-------------------------------------------------------------|
D|-------------------------------------------------------------|
 |
e|-------------------------------------------------------------|
B|-------------------------------------------------------------|
G|-------------------------------------------------------------|
D|-------------------------------------------------------------|
A|-5-5-5-2-5-2-2---------------5-5-5-2-5-2-2-------------------|
D|-5-5-5-2-5-2-2---------------5-5-5-2-5-2-2-------------------|

e|-------------5---------------------------5----|
B|-2-----------3---------------2-----------3----|
G|-------------2---------------------------2----|
D|----------------------------------------------|
A|----------------------------------------------|
D|----------------------------------------------|
 |
e|----------------------------------------------|
B|----------------------------------------------|
G|----------------------------------------------|
D|----------------------------------------------|
A|-9-9-9-7-9-9-9---------------9-9-9-7-9-9-9----|
D|-9-9-9-7-9-9-9---------------9-9-9-7-9-9-9----|

e|--------------------------------------------------------------|
B|-2----------3-------------------------------------------------|
G|-----------------------------7N.H-----------7N.H--------------|
D|-----------------------------------2-2-2-2-------2-2-2-2-2-2/-|
A|-----------------------------------2-2-2-2-------2-2-2-2-2-2/-|
D|----------------------12\--x-------2-2-2-2-x-----2-2-2-2-2-2/-|
 |
e|--------------------------------------------------------------|
B|--------------------------------------------------------------|
G|-----------------------------7N.H--4-4-4-4-4-4-4-4-4-4-4-4-4/-|
D|-----------------------------------2-2-2-2-2-2-2-2-2-2-2-2-2/-|
A|-5-5-5-2-5-4-4---------------------2-2-2-2-2-2-2-2-2-2-2-2-2/-|
D|-5-5-5-2-5-4-4--------12\--x-------2-2-2-2-2-2-2-2-2-2-2-2-2/-|

___________________________________________________________________

Chorus

e|-----------------------------------------------------------|
B|---------7-------------------------------------------------|
G|-11-1111-5--6-6-6-6-9-9-9------------------11111111-9-9-9--|
D|-9--9-9--0--x-x-x-x-x-x-x--5--5-5--0--0-0--x-x-x-x--x-x-x--|
A|-9--9-9--0--4-4-4-4-7-7-7--5--5-5--0--0-0--9-9-9-9--7-7-7--|
D|-9--9-9--0-----------------5--5-5--0--0-0------------------|

e|---------------------------------------|
B|---------7--------------------------7--|
G|-11-1111-5--6-6-6-6-9-9-9-----------5--|
D|-9--9-9--0--x-x-x-x-x-x-x-----5--4--0--|
A|-9--9-9--0--4-4-4-4-7-7-7-----5--4--0--|
D|-9--9-9--0--------------------5--4--0--|
 |
e|---------------------------------------|
B|---------7--------------------------7--|
G|-11-1111-5--9-9-9-9-12-12-12--------5--|
D|-9--9-9--0--x-x-x-x--x--x--x--5--4--0--|
A|-9--9-9--0--7-7-7-7-10-10-10--5--4--0--|
D|-9--9-9--0--------------------5--4--0--|


e|----------------------------14b------------------------|
B|---------------------------------15--------------------|
G|----11---14------12---11------------14-12-11----11b----|
D|-12----12-----12----12--12-------------------12-----12-|
A|-------------------------------------------------------|
D|-------------------------------------------------------|
 |
e|-------------------------------------------------------|
B|-------------------------------------------------------|
G|-11-111111--14--14-14-14-14--14--14-14-14--7--7-7-7-7--|
D|-9--9-9-9---12--12-12-12-12--12--11-11-11--5--5-5-5-5--|
A|-9--9-9-9---12--12-12-12-12--12--12-12-12--5--5-5-5-5--|
D|-9--9-9-9---12--12-12-12-12--12--11-11-11--5--5-5-5-5--|

e|----------------------------14b------12----12-----|
B|----------------------------------15----15----15--|
G|----11---14------12---11--------------------------|
D|-12----12-----12----12--12------------------------|
A|--------------------------------------------------|
D|--------------------------------------------------|
 |
e|--------------------------------------------------|
B|-----------------------------------------7--------|
G|-11-111111--14--14-14-14-14-14-----------5--------|
D|-9--9-9-9---12--12-12-12-12-12-----5--4--0--------|
A|-9--9-9-9---12--12-12-12-12-12-----5--4--0--------|
D|-9--9-9-9---12--12-12-12-12-12-----5--4--0--------|
_________________________________________________________

Verse 2

(tremolo on lead guitar)
e|----------------------------------------------|
B|-2-----------3---------------2-----------3----|
G|----------------------------------------------|
D|----------------------------------------------|
A|----------------------------------------------|
D|----------------------------------------------|
 |
e|----------------------------------------------|
B|----------------------------------------------|
G|----------------------------------------------|
D|----------------------------------------------|
A|-9-9-9-7-9-9-9---------------9-9-9-7-9-9-9----|
D|-9-9-9-7-9-9-9---------------9-9-9-7-9-9-9----|

e|-2-----------------------------------------------------------|
B|-----------5---------3-------2-----------3--------2----------|
G|--------------------------------------------------------2----|
D|-------------------------------------------------------------|
A|-------------------------------------------------------------|
D|-------------------------------------------------------------|
 |
e|-------------------------------------------------------------|
B|-------------------------------------------------------------|
G|-------------------------------------------------------------|
D|-------------------------------------------------------------|
A|-5-5-5-2-5-2-2---------------5-5-5-2-5-2-2-------------------|
D|-5-5-5-2-5-2-2---------------5-5-5-2-5-2-2-------------------|

e|-------------5---------------------------5----|
B|-2-----------3---------------2-----------3----|
G|-------------2---------------------------2----|
D|----------------------------------------------|
A|----------------------------------------------|
D|----------------------------------------------|
 |
e|----------------------------------------------|
B|----------------------------------------------|
G|----------------------------------------------|
D|----------------------------------------------|
A|-9-9-9-7-9-9-9---------------9-9-9-7-9-9-9----|
D|-9-9-9-7-9-9-9---------------9-9-9-7-9-9-9----|

e|--------------------------------------------------------------|
B|-2----------3-------------------------------------------------|
G|-----------------------------7N.H-----------7N.H--------------|
D|-----------------------------------2-2-2-2-------2-2-2-2-2-2/-|
A|-----------------------------------2-2-2-2-------2-2-2-2-2-2/-|
D|----------------------12\--x-------2-2-2-2-x-----2-2-2-2-2-2/-|
 |
e|--------------------------------------------------------------|
B|--------------------------------------------------------------|
G|-----------------------------7N.H--4-4-4-4-4-4-4-4-4-4-4-4-4/-|
D|-----------------------------------2-2-2-2-2-2-2-2-2-2-2-2-2/-|
A|-5-5-5-2-5-4-4---------------------2-2-2-2-2-2-2-2-2-2-2-2-2/-|
D|-5-5-5-2-5-4-4--------12\--x-------2-2-2-2-2-2-2-2-2-2-2-2-2/-|

___________________________________________________________________

Chorus

e|-----------------------------------------------------------|
B|---------7-------------------------------------------------|
G|-11-1111-5--6-6-6-6-9-9-9------------------11111111-9-9-9--|
D|-9--9-9--0--x-x-x-x-x-x-x--5--5-5--0--0-0--x-x-x-x--x-x-x--|
A|-9--9-9--0--4-4-4-4-7-7-7--5--5-5--0--0-0--9-9-9-9--7-7-7--|
D|-9--9-9--0-----------------5--5-5--0--0-0------------------|

e|---------------------------------------|
B|---------7--------------------------7--|
G|-11-1111-5--6-6-6-6-9-9-9-----------5--|
D|-9--9-9--0--x-x-x-x-x-x-x-----5--4--0--|
A|-9--9-9--0--4-4-4-4-7-7-7-----5--4--0--|
D|-9--9-9--0--------------------5--4--0--|
 |
e|---------------------------------------|
B|---------7--------------------------7--|
G|-11-1111-5--9-9-9-9-12-12-12--------5--|
D|-9--9-9--0--x-x-x-x--x--x--x--5--4--0--|
A|-9--9-9--0--7-7-7-7-10-10-10--5--4--0--|
D|-9--9-9--0--------------------5--4--0--|


e|----------------------------14b------------------------|
B|---------------------------------15--------------------|
G|----11---14------12---11------------14-12-11----11b----|
D|-12----12-----12----12--12-------------------12-----12-|
A|-------------------------------------------------------|
D|-------------------------------------------------------|
 |
e|-------------------------------------------------------|
B|-------------------------------------------------------|
G|-11-111111--14--14-14-14-14--14--14-14-14--7--7-7-7-7--|
D|-9--9-9-9---12--12-12-12-12--12--11-11-11--5--5-5-5-5--|
A|-9--9-9-9---12--12-12-12-12--12--12-12-12--5--5-5-5-5--|
D|-9--9-9-9---12--12-12-12-12--12--11-11-11--5--5-5-5-5--|

e|----------------------------14b------12----12-----|
B|----------------------------------15----15----15--|
G|----11---14------12---11--------------------------|
D|-12----12-----12----12--12------------------------|
A|--------------------------------------------------|
D|--------------------------------------------------|
 |
e|--------------------------------------------------|
B|-----------------------------------------7--------|
G|-11-111111--14--14-14-14-14-14-----------5--------|
D|-9--9-9-9---12--12-12-12-12-12-----5--4--0--------|
A|-9--9-9-9---12--12-12-12-12-12-----5--4--0--------|
D|-9--9-9-9---12--12-12-12-12-12-----5--4--0--------|
______________________________________________________________

Breakdown

e|-14-12-14-12-14-12-14-12---------------------------------|
B|---------------------------------------------------------|
G|-------------------------11-9-11-9-11-9-12-11-9----------|
D|------------------------------------------------12-11-9--|
A|---------------------------------------------------------|
D|---------------------------------------------------------|
 |
e|---------------------------------------------------------|
B|---------------------------------------------------------|
G|---------------------------------------------------------|
D|-2-2-2-2-2-2-2-2-2-2-2-2-2-2-2-2-2-2-2-2-2-2-2-2-2-2-2-2-|
A|-2-2-2-2-2-2-2-2-2-2-2-2-2-2-2-2-2-2-2-2-2-2-2-2-2-2-2-2-|
D|-2-2-2-2-2-2-2-2-2-2-2-2-2-2-2-2-2-2-2-2-2-2-2-2-2-2-2-2-|

e|-14-12-14-12-14-12-14-12---------------------------------|
B|---------------------------------------------------------|
G|-------------------------11-9-11-9-11-9-12-11-9----------|
D|------------------------------------------------12-11-9--|
A|---------------------------------------------------------|
D|---------------------------------------------------------|
 |
e|---------------------------------------------------------|
B|---------------------------------------------------------|
G|---------------------------------------------------------|
D|-4-4-4-4-4-4-4-4-4-4-4-4-4-4-4-4-4-4-4-4-4-4-4-4-4-4-4-4-|
A|-4-4-4-4-4-4-4-4-4-4-4-4-4-4-4-4-4-4-4-4-4-4-4-4-4-4-4-4-|
D|-4-4-4-4-4-4-4-4-4-4-4-4-4-4-4-4-4-4-4-4-4-4-4-4-4-4-4-4-|

e|-------------------------------------------------|
B|-------------------------------------------------|
G|-------11-12-14-12-11----------11-12-14-12-11----|
D|-11-12----------------12-11-12----------------12-|
A|-------------------------------------------------|
D|-------------------------------------------------|
 |
e|-------------------------------------------------|
B|-------------------------------------------------|
G|-------------------------------------------------|
D|-5-----4---5--2-2-2--5-----4---5--2-2-2--0-0-----|
A|-5-----4---5--2-2-2--5-----4---5--2-2-2--0-0-----|
D|-5-----4---5--2-2-2--5-----4---5--2-2-2--0-0-----|

e|-14-12-14-12-14-12-14-12---------------------------------|
B|---------------------------------------------------------|
G|-------------------------11-9-11-9-11-9-12-11-9----------|
D|------------------------------------------------12-11-9--|
A|---------------------------------------------------------|
D|---------------------------------------------------------|
 |
e|---------------------------------------------------------|
B|---------------------------------------------------------|
G|-4-4-4-4-4-4-4-4-4-4-4-4-4-4-4-4-4-4-4-4-4-4-4-4-4-4-4-4-|
D|-2-2-2-2-2-2-2-2-2-2-2-2-2-2-2-2-2-2-2-2-2-2-2-2-2-2-2-2-|
A|-2-2-2-2-2-2-2-2-2-2-2-2-2-2-2-2-2-2-2-2-2-2-2-2-2-2-2-2-|
D|-2-2-2-2-2-2-2-2-2-2-2-2-2-2-2-2-2-2-2-2-2-2-2-2-2-2-2-2-|

e|-14-12-14-12-14-12-14-12------------------------------------------|
B|------------------------------------------------------------------|
G|-------------------------11-9-11-9-11-9-12-11-9-11-12-------------|
D|------------------------------------------------------------------|
A|------------------------------------------------------------------|
D|------------------------------------------------------------------|
 |
e|------------------------------------------------------------------|
B|-5-5-5-5-5-5-5-5-5-5-5-5-5-5-5-5-5-5-5-5-5-5-5-5-5-5--8-----------|
G|-6-6-6-6-6-6-6-6-6-6-6-6-6-6-6-6-6-6-6-6-6-6-6-6-6-6--7-----------|
D|-4-4-4-4-4-4-4-4-4-4-4-4-4-4-4-4-4-4-4-4-4-4-4-4-4-4--7------7----|
A|-4-4-4-4-4-4-4-4-4-4-4-4-4-4-4-4-4-4-4-4-4-4-4-4-4-4--5------7----|
D|-4-4-4-4-4-4-4-4-4-4-4-4-4-4-4-4-4-4-4-4-4-4-4-4-4-4--5------7----|


e|-----------------------------------------------------|
B|-----------------------------------------------------|
G|-----------------------------------------------------|
D|-------7----------4--------7-------7-----------4-----|
A|-2-4-5---0-0-2-4-5---2-4-5---2-4-5---0-0-2-4-5-------|
D|-----------------------------------------------------|
 |
e|-----------------------------------------------------|
B|-----------------------------------------------------|
G|-----------------------------------------------------|
D|-5----------------0--------5-------0-----------5-----|
A|-5----------------0--------5-------0-----------5-----|
D|-5----------------0--------5-------0-----------5-----|

e|----------------------------------|
B|----------------------------------|
G|----------------------------------|
D|--------7-------7-----------4-----|x2
A|--2-4-5---2-4-5---0-0-2-4-5-------|
D|----------------------------------|
 |
e|----------------------------------|
B|----------------------------------|
G|----------------------------------|
D|--------0-------5-----------0-----|x2
A|--------0-------5-----------0-----|
D|--------0-------5-----------0-----|
__________________________________________________

Chorus

e|-----------------------------------------------------------|
B|---------7-------------------------------------------------|
G|-11-1111-5--6-6-6-6-9-9-9------------------11111111-9-9-9--|
D|-9--9-9--0--x-x-x-x-x-x-x--5--5-5--0--0-0--x-x-x-x--x-x-x--|
A|-9--9-9--0--4-4-4-4-7-7-7--5--5-5--0--0-0--9-9-9-9--7-7-7--|
D|-9--9-9--0-----------------5--5-5--0--0-0------------------|

e|---------------------------------------|
B|---------7--------------------------7--|
G|-11-1111-5--6-6-6-6-9-9-9-----------5--|
D|-9--9-9--0--x-x-x-x-x-x-x-----5--4--0--|
A|-9--9-9--0--4-4-4-4-7-7-7-----5--4--0--|
D|-9--9-9--0--------------------5--4--0--|
 |
e|---------------------------------------|
B|---------7--------------------------7--|
G|-11-1111-5--9-9-9-9-12-12-12--------5--|
D|-9--9-9--0--x-x-x-x--x--x--x--5--4--0--|
A|-9--9-9--0--7-7-7-7-10-10-10--5--4--0--|
D|-9--9-9--0--------------------5--4--0--|


e|----------------------------14b------------------------|
B|---------------------------------15--------------------|
G|----11---14------12---11------------14-12-11----11b----|
D|-12----12-----12----12--12-------------------12-----12-|
A|-------------------------------------------------------|
D|-------------------------------------------------------|
 |
e|-------------------------------------------------------|
B|-------------------------------------------------------|
G|-11-111111--14--14-14-14-14--14--14-14-14--7--7-7-7-7--|
D|-9--9-9-9---12--12-12-12-12--12--11-11-11--5--5-5-5-5--|
A|-9--9-9-9---12--12-12-12-12--12--12-12-12--5--5-5-5-5--|
D|-9--9-9-9---12--12-12-12-12--12--11-11-11--5--5-5-5-5--|

e|----------------------------14b------12----12-----|
B|----------------------------------15----15----15--|
G|----11---14------12---11--------------------------|
D|-12----12-----12----12--12------------------------|
A|--------------------------------------------------|
D|--------------------------------------------------|
 |
e|--------------------------------------------------|
B|-----------------------------------------7--------|
G|-11-111111--14--14-14-14-14-14-----------5--------|
D|-9--9-9-9---12--12-12-12-12-12-----5--4--0--------|
A|-9--9-9-9---12--12-12-12-12-12-----5--4--0--------|
D|-9--9-9-9---12--12-12-12-12-12-----5--4--0--------|
_____________________________________________________

Outro

e|-14-12-14-12-14-12-14-12---------------------------------|
B|---------------------------------------------------------|
G|-------------------------11-9-11-9-11-9-12-11-9----------|
D|------------------------------------------------12-11-9--|
A|---------------------------------------------------------|
D|---------------------------------------------------------|
 |
e|---------------------------------------------------------|
B|---------------------------------------------------------|
G|-4-4-4-4-4-4-4-4-4-4-4-4-4-4-4-4-4-4-4-4-4-4-4-4-4-4-4-4-|
D|-2-2-2-2-2-2-2-2-2-2-2-2-2-2-2-2-2-2-2-2-2-2-2-2-2-2-2-2-|
A|-2-2-2-2-2-2-2-2-2-2-2-2-2-2-2-2-2-2-2-2-2-2-2-2-2-2-2-2-|
D|-2-2-2-2-2-2-2-2-2-2-2-2-2-2-2-2-2-2-2-2-2-2-2-2-2-2-2-2-|

e|-14-12-14-12-14-12-14-12----------------------------------|
B|----------------------------------------------------------|
G|-------------------------11-9-11-9-11-9-11-9-12-15--15----|
D|----------------------------------------------------------|
A|----------------------------------------------------------|
D|----------------------------------------------------------|
 |
e|----------------------------------------------------------|
B|-5-5-5-5-5-5-5-5-5-5-5-5-5-5-5-5-5-5-5-5-5-5--8--5---7----|
G|-6-6-6-6-6-6-6-6-6-6-6-6-6-6-6-6-6-6-6-6-6-6--7--6---5----|
D|-4-4-4-4-4-4-4-4-4-4-4-4-4-4-4-4-4-4-4-4-4-4--7--4---0----|
A|-4-4-4-4-4-4-4-4-4-4-4-4-4-4-4-4-4-4-4-4-4-4--5--4---0----|
D|-4-4-4-4-4-4-4-4-4-4-4-4-4-4-4-4-4-4-4-4-4-4--5--4---0----|


That's it.

Email me at phatstud55@gmail.com if you have questions, comments or corrections.

Please comment and rate.




            
            
Suggest correction
Creating personal tab
Creating personal tab
You can edit any tab online and save it as your Personal.

You can edit, replace or remove any tab part or add personal notes – all changes will be seen only by you.

Personal tabs can be accessed anytime from any device, even offline.
Learn more »
Give kudos to tab author, rate the tab!
1 2 3 4 5
comments
print report bad tab
guest
You may want to rate the tab now too:
select rating
Wanna post a correction for this tab? Suggest correction