Oops, an error
Loading. Please wait.

The Martyr tab

1,265 views 1 this week
no commentswrite comment
1 2 3 4 5
1 last vote to show rating
add to favorites
×
Save as Personal and add changes to this tab that will be seen only by you. Learn more ›
×
You can save this tab as Personal to edit and correct it or add notes. All changes will be seen only by you. Learn more »
launch autoscroll
font size
0
reset
how to read this tab
guitar tuner
edit
Autoscroll
slow
fast
+/-
esc
set tempo
stop
-------------------------------------------------------------------------------
                             The Martyr - Senses Fail
-----------------------------------------------------------------------------
                              UPDATED AS OF 11/05/2009

Tabbed by:Phat Stud 55
Email:phatstud55@gmail.com

*note:there are a few parts spaced out so that all the note would line up,
just ignore the large spaces as they are only there so that everything lines up.

Tuning:CGCFAd

_________________________________________________
Intro

First couple of bars only drums

d|-----------------------------------------------------------------|
A|-----------------------------------------------------------------|
F|-----------------------------------------------------------------|
C|-----------------------------------------------------------------|
G|-----3-5-0------------3-5-0----------3-5-0-----------3-5-0-6-5---|
C|-x-0-------333555-6-0-------6-5-3-0-------333555-6-0-------6-5---|

d|-------------------------------------------------------------------|
A|-------------------------------------------------------------------|
F|-------------------------------------------------------------------|
C|-------------------------------------------------------------------|
G|-----3-5-0------------3-5-0----------3-5-0-----------3-5-0-----5---|
C|---0-------333555-6-0-------6-5-3-0-------333555-6-0-------5-6---0-|

d|-------------------------------------------------------------|
A|-------------------------------------------------------------|
F|-------------------------------------------------------------|
C|----------------------------------------5---3-5---5-7-0------|
G|-----3-5-0------------3-5-0------------5--0-------------6-5--|
C|---0-------333555-6-0-------6-5-3-0---3---------0-------6-5--|

_____________________________________________________________

Verse 1


d|-------------------------------------------------------------|
A|----------------------------------------------------------6--|
F|-2--2-2-----2-2-2-2-2-2-2-2-2-------------5-5-5-5-5-5-5-5----|
C|-0--0-0-----0-0-0-0-0-0-0-0-0--3--3-3-----3-3-3-3-3-3-3-3----|
G|-0--0-0-----0-0-0-0-0-0-0-0-0--3--3-3-----3-3-3-3-3-3-3-3----|
C|-0--0-0-000-0-0-0-0-0-0-0-0-0--3--3-3-333-3-3-3-3-3-3-3-3----|
P.M   * * *** * * * * * * * *       * * *** * * * * * * *


d|------------------------------------------------------------|
A|------------------------------------------------------------|
F|----------------------------10------------------------------|
C|-8--8-8-----8-8-8-8-8-8-8-8----5-5-5-----5-5-5-5-5-5-5--5---|
G|-8--8-8-----8-8-8-8-8-8-8-8----5-5-5-----5-5-5-5-5-5-5--5---|
C|-8--8-8-888-8-8-8-8-8-8-8-8----5-5-5-555-5-5-5-5-5-5-5--5---|
P.M   * * *** * * * * * * * *      * * *** * * * * * * *

d|-----------------------------------------------------------------------------------|
A|----10-------------------10-----------------10---------------------10--------------|
F|------12-10-9-10-12-10------12-10-9-10-9-------12-10-9-10-12-10------12-10-9-10-9--|
C|-10--------------------12----------------10---------------------12-----------------|
G|-----------------------------------------------------------------------------------|
C|-----------------------------------------------------------------------------------|
 |
d|-----------------------------------------------------------------------------------|
A|---------------------------------------------------------------------6-------------|
F|-2--2-2-----2-2-2-2-2-2-2-2-2------------5--5-5-----5-5-5-5-5-5-5-5----------------|
C|-0--0-0-----0-0-0-0-0-0-0-0-0------------3--3-3-----3-3-3-3-3-3-3-3----------------|
G|-0--0-0-----0-0-0-0-0-0-0-0-0------------3--3-3-----3-3-3-3-3-3-3-3----------------|
C|-0--0-0-000-0-0-0-0-0-0-0-0-0------------3--3-3-333-3-3-3-3-3-3-3-3----------------|
P.M   * * *** * * * * * * * *              * * *** * * * * * * *


d|-------------------------------------------------------------------------------------------|
A|-13------------------------------------------13-------13-------13-------15-----13----------|
F|----15-14-12-10-12-14-12--15-14-12----14-12-----14-------14-------14-------14-----14-------|
C|-----------------------------------15--------------12-------12-------12---------------12---|
G|-------------------------------------------------------------------------------------------|
C|-------------------------------------------------------------------------------------------|
 |
d|-------------------------------------------------------------------------------------------|
A|-------------------------------------------------------------------------------------------|
F|----------------------------10-------------------------------------------------------------|
C|-8--8-8-----8-8-8-8-8-8-8-8------------------10-10-10--------10-10-10-10-10-10-10-10--10---|
G|-8--8-8-----8-8-8-8-8-8-8-8------------------10-10-10-101010-10-10-10-10-10-10-10-10--10---|
C|-8--8-8-888-8-8-8-8-8-8-8-8------------------10-10-10-101010-10-10-10-10-10-10-10-10--10---|
P.M   * * *** * * * * * * * *                    * * *** * * * * * * *  *  *

d|---------------------------------------------------------|
A|---------------------------------------------------------|
F|-----------------------------------5-5-5-5-5-5-5---------|
C|-5-5-5-5-5-5-5-5-5-3-3-3-3-3-5-5-5-5-5-5-5-5-5-5---------|
G|-5-5-5-5-5-5-5-5-5-3-3-3-3-3-5-5-5-3-3-3-3-3-3-3--3-5----|
C|-5-5-5-5-5-5-5-5-5-3-3-3-3-3-2-2-2----------------3-5----|

d|---------------------------------------------------------|
A|---------------------------------------------------------|
F|---------------------------------------------------------|
C|-5-5-5-5-5-5-5-5-7-7-8-8-8-8-8-8-10-10-10-10-10-10-------|
G|-5-5-5-5-5-5-5-5-7-7-8-8-8-8-8-8-10-10-10-10-10-10-------|
C|-5-5-5-5-5-5-5-5-7-7-8-8-8-8-8-8-10-10-10-10-10-10-------|

_____________________________________________________________

Chorus

d|-------8-8-8-----------8-8-8----------8-8-8-------------------------|
A|--------------------------------------------------------------------|
F|-7-7-7-------7-7-5-5-5-------5-5-9-9-9------9-9-10-10-10-10-9-9-9---|
C|--------------------------------------------------------------------|
G|--------------------------------------------------------------------|
C|--------------------------------------------------------------------|
 |
d|--------------------------------------------------------------------|
A|-----------------6-6-6-6-6-6-6-6------------------------------------|
F|-10101010101010105-5-5-5-5-5-5-5-12-12-12-12-12-12-12-12-12-12-12---|
C|-8-8-8-8-8-8-8-8-3-3-3-3-3-3-3-3-10-10-10-10-10-12-12-12-10-10-10---|
G|-8-8-8-8-8-8-8-8-3-3-3-3-3-3-3-3-10-10-10-10-10-12-12-12-10-10-10---|
C|-8-8-8-8-8-8-8-8-3-3-3-3-3-3-3-3-10-10-10-10-10-12-12-12-10-10-10---|

d|-------8-8-8-----------8-8-8----------8-8-8-------------------------|
A|--------------------------------------------------------------------|
F|-7-7-7-------7-7-5-5-5-------5-5-9-9-9------9-9-9-10-0-9-10-12-10-9-|
C|--------------------------------------------------------------------|
G|--------------------------------------------------------------------|
C|--------------------------------------------------------------------|
 |
d|--------------------------------------------------------------------|
A|-----------------6-6-6-6-6-6-6-6------------------------------------|
F|-10101010101010105-5-5-5-5-5-5-5-12-12-12-12-12---------------------|
C|-8-8-8-8-8-8-8-8-3-3-3-3-3-3-3-3-10-10-10-10-10---------------------|
G|-8-8-8-8-8-8-8-8-3-3-3-3-3-3-3-3-10-10-10-10-10---7--8-0-10-8--7--5-|
C|-8-8-8-8-8-8-8-8-3-3-3-3-3-3-3-3-10-10-10-10-10-0-------------------|


d|-------8-8-8-----------8-8-8----------8-8-8-------------------------|
A|--------------------------------------------------------------------|
F|-7-7-7-------7-7-5-5-5-------5-5-9-9-9------9-9-10-10-10-10-9-9-9---|
C|--------------------------------------------------------------------|
G|--------------------------------------------------------------------|
C|--------------------------------------------------------------------|
 |
d|--------------------------------------------------------------------|
A|-----------------6-6-6-6-6-6-6-6------------------------------------|
F|-10101010101010105-5-5-5-5-5-5-5-12-12-12-12-12-12-12-12-12-12-12---|
C|-8-8-8-8-8-8-8-8-3-3-3-3-3-3-3-3-10-10-10-10-10-12-12-12-10-10-10---|
G|-8-8-8-8-8-8-8-8-3-3-3-3-3-3-3-3-10-10-10-10-10-12-12-12-10-10-10---|
C|-8-8-8-8-8-8-8-8-3-3-3-3-3-3-3-3-10-10-10-10-10-12-12-12-10-10-10---|

d|-------8-8-8-----------8-8-8----------------------------------------|
A|--------------------------------------------------------------------|
F|-7-7-7-------7-7-5-5-5-------5-5-9-9-9-9-9-9-9-9-9-9-9-9-b9-9-9-9-9-|
C|--------------------------------------------------------------------|
G|--------------------------------------------------------------------|
C|--------------------------------------------------------------------|
 |
d|--------------------------------------------------------------------|
A|-----------------6-6-6-6-6-6-6-6------------------------------------|
F|-10101010101010105-5-5-5-5-5-5-5-12-12-12-12-12-12-12-12-12-12-12---|
C|-8-8-8-8-8-8-8-8-3-3-3-3-3-3-3-3-10-10-10-10-10-12-12-12-10-10-10---|
G|-8-8-8-8-8-8-8-8-3-3-3-3-3-3-3-3-10-10-10-10-10-12-12-12-10-10-10---|
C|-8-8-8-8-8-8-8-8-3-3-3-3-3-3-3-3-10-10-10-10-10-12-12-12-10-10-10---|
_________________________________________________________________________

Interlude

d|-------------------------------------------------------------------|
A|-------------------------------------------------------------------|
F|-------------------------------------------------------------------|
C|-------------------------------------------------------------------|
G|-----3-5-0------------3-5-0----------3-5-0------------6-5-6-5-6-5--|
C|-x-0-------333555-6-0-------6-5-3-0-------333555-6-0--6-5-6-5-6-5--|

______________________________________________________________

Verse 2

d|--------------------------------------------------------------------------|
A|-3------------------------6--------6-----------6--------------------------|
F|-2------------------------5--------5-----------5---9-101010109-101010109--|
C|-0------------------------3--------3-----------3---x-x-x-x-x-x-x-x-x-x-x--|
G|-0------------------------3--------3-----------3---7-8-8-8-8-7-8-8-8-8-7--|
C|-0-------000--------000---3----333-3-333-3-333-3--------------------------|
P.M        ***        ***        ***   ***   ***

d|-------------------|
A|-------------------|
F|-------------------|
C|-------------------|
G|-------------------|
C|-000--000--00-000--|
P.M***  ***  ** ***


d|-----------------------------------------------------------------------------------|
A|----10-------------------10-----------------10---------------------10--------------|
F|------12-10-9-10-12-10------12-10-9-10-9-------12-10-9-10-12-10------12-10-9-10-9--|
C|-10--------------------12----------------10---------------------12-----------------|
G|-----------------------------------------------------------------------------------|
C|-----------------------------------------------------------------------------------|
 |
d|-----------------------------------------------------------------------------------|
A|---------------------------------------------------------------------6-------------|
F|-2--2-2-----2-2-2-2-2-2-2-2-2------------5--5-5-----5-5-5-5-5-5-5-5----------------|
C|-0--0-0-----0-0-0-0-0-0-0-0-0------------3--3-3-----3-3-3-3-3-3-3-3----------------|
G|-0--0-0-----0-0-0-0-0-0-0-0-0------------3--3-3-----3-3-3-3-3-3-3-3----------------|
C|-0--0-0-000-0-0-0-0-0-0-0-0-0------------3--3-3-333-3-3-3-3-3-3-3-3----------------|
P.M   * * *** * * * * * * * *              * * *** * * * * * * *


d|-------------------------------------------------------------------------------------------|
A|-13------------------------------------------13-------13-------13-------15-----13----------|
F|----15-14-12-10-12-14-12--15-14-12----14-12-----14-------14-------14-------14-----14-------|
C|-----------------------------------15--------------12-------12-------12---------------12---|
G|-------------------------------------------------------------------------------------------|
C|-------------------------------------------------------------------------------------------|
 |
d|-------------------------------------------------------------------------------------------|
A|-------------------------------------------------------------------------------------------|
F|----------------------------10-------------------------------------------------------------|
C|-8--8-8-----8-8-8-8-8-8-8-8------------------10-10-10--------10-10-10-10-10-10-10-10--10---|
G|-8--8-8-----8-8-8-8-8-8-8-8------------------10-10-10-101010-10-10-10-10-10-10-10-10--10---|
C|-8--8-8-888-8-8-8-8-8-8-8-8------------------10-10-10-101010-10-10-10-10-10-10-10-10--10---|
_________________________________________________________________________________________

Chorus

d|-------8-8-8-----------8-8-8----------8-8-8-------------------------|
A|--------------------------------------------------------------------|
F|-7-7-7-------7-7-5-5-5-------5-5-9-9-9------9-9-10-10-10-10-9-9-9---|
C|--------------------------------------------------------------------|
G|--------------------------------------------------------------------|
C|--------------------------------------------------------------------|
 |
d|--------------------------------------------------------------------|
A|-----------------6-6-6-6-6-6-6-6------------------------------------|
F|-10101010101010105-5-5-5-5-5-5-5-12-12-12-12-12-12-12-12-12-12-12---|
C|-8-8-8-8-8-8-8-8-3-3-3-3-3-3-3-3-10-10-10-10-10-12-12-12-10-10-10---|
G|-8-8-8-8-8-8-8-8-3-3-3-3-3-3-3-3-10-10-10-10-10-12-12-12-10-10-10---|
C|-8-8-8-8-8-8-8-8-3-3-3-3-3-3-3-3-10-10-10-10-10-12-12-12-10-10-10---|

d|-------8-8-8-----------8-8-8----------8-8-8-------------------------|
A|--------------------------------------------------------------------|
F|-7-7-7-------7-7-5-5-5-------5-5-9-9-9------9-9-9-10-0-9-10-12-10-9-|
C|--------------------------------------------------------------------|
G|--------------------------------------------------------------------|
C|--------------------------------------------------------------------|
 |
d|--------------------------------------------------------------------|
A|-----------------6-6-6-6-6-6-6-6------------------------------------|
F|-10101010101010105-5-5-5-5-5-5-5-12-12-12-12-12---------------------|
C|-8-8-8-8-8-8-8-8-3-3-3-3-3-3-3-3-10-10-10-10-10---------------------|
G|-8-8-8-8-8-8-8-8-3-3-3-3-3-3-3-3-10-10-10-10-10---7--8-0-10-8--7--5-|
C|-8-8-8-8-8-8-8-8-3-3-3-3-3-3-3-3-10-10-10-10-10-0-------------------|


d|-------8-8-8-----------8-8-8----------8-8-8-------------------------|
A|--------------------------------------------------------------------|
F|-7-7-7-------7-7-5-5-5-------5-5-9-9-9------9-9-10-10-10-10-9-9-9---|
C|--------------------------------------------------------------------|
G|--------------------------------------------------------------------|
C|--------------------------------------------------------------------|
 |
d|--------------------------------------------------------------------|
A|-----------------6-6-6-6-6-6-6-6------------------------------------|
F|-10101010101010105-5-5-5-5-5-5-5-12-12-12-12-12-12-12-12-12-12-12---|
C|-8-8-8-8-8-8-8-8-3-3-3-3-3-3-3-3-10-10-10-10-10-12-12-12-10-10-10---|
G|-8-8-8-8-8-8-8-8-3-3-3-3-3-3-3-3-10-10-10-10-10-12-12-12-10-10-10---|
C|-8-8-8-8-8-8-8-8-3-3-3-3-3-3-3-3-10-10-10-10-10-12-12-12-10-10-10---|

d|-------8-8-8-----------8-8-8----------------------------------------|
A|--------------------------------------------------------------------|
F|-7-7-7-------7-7-5-5-5-------5-5-9-9-9-9-9-9-9-9-9-9-9-9-b9-9-9-9-9-|
C|--------------------------------------------------------------------|
G|--------------------------------------------------------------------|
C|--------------------------------------------------------------------|
 |
d|--------------------------------------------------------------------|
A|-----------------6-6-6-6-6-6-6-6------------------------------------|
F|-10101010101010105-5-5-5-5-5-5-5-12-12-12-12-12-12-12-12-12-12-12---|
C|-8-8-8-8-8-8-8-8-3-3-3-3-3-3-3-3-10-10-10-10-10-12-12-12-10-10-10---|
G|-8-8-8-8-8-8-8-8-3-3-3-3-3-3-3-3-10-10-10-10-10-12-12-12-10-10-10---|
C|-8-8-8-8-8-8-8-8-3-3-3-3-3-3-3-3-10-10-10-10-10-12-12-12-10-10-10---|
________________________________________________________________________

Breakdown

d|-10101010x-101010128-8-8-8-x-6-6-6-6-x-5---|
A|-x-x-x-x-x-x-x-x-x-x-x-x-x-x-x-x-x-x-x-x---|
F|-7-7-7-7-x-7-7-7-9-5-5-5-5-x-3-3-3-3-x-2---|
C|-------------------------------------------|x2
G|-------------------------------------------|
C|-------------------------------------------|
 |
d|-------------------------------------------|
A|-8-8-8-8---8-8-8---------------------------|
F|-7-7-7-7---7-7-7---10101010--101010101010--|
C|-5-5-5-5---5-5-5-7-10101010--101010101010--|x2
G|-5-5-5-5---5-5-5-7-8-8-8-8---8-8-8-8-8-8---|
C|-5-5-5-5-x-5-5-5-7-8-8-8-8-x-8-8-8-8-8-8---|

d|-4------------------------------|
A|-x------------------------------|
F|-2-------------10---------------|
C|---------------10---------------|
G|---------------8----------------|
C|---------------8-----------12\--|
 |
d|--------------------------------|
A|--------------------------------|
F|---------------10---------------|
C|-0-------------10---------------|
G|-0-------------8----------------|
C|-0-------------8-----------12\--|

d|-----------------------------------------------|
A|----------------------------------5-----5------|
F|--------------------5-5-5-5-5-5-5---5-----5----|
C|-3--3-3-3-3-3-3-3-3-5-5-5-5-5-5-5-----5-----5--|
G|-3--3-3-3-3-3-3-3-3-3-3-3-3-3-3-3--------------|
C|-3--3-3-3-3-3-3-3-3----------------------------|
P.M   * * * * * * * * * * * * * * *
______________________________________________________________

Verse 3

d|---------------------------------------------------------------------------------|
A|---------------------------------------------------------------------------------|
F|--7-7-7-5-5-5-----7-7-7-5-5-5----10-10-10-7-7-7----------10-10-10-7-7-7----------|
C|--------------7-7------------7-7----------------10-10-10----------------10-10-10-|
G|---------------------------------------------------------------------------------|
C|---------------------------------------------------------------------------------|
 |
d|---------------------------------------------------------------------------------|
A|---------------------------------------------------------------------------------|
F|---------------------------------------------------------------------------------|
C|--8-8-8-7-7-7----8-8-8-7-7-7-----10-10-10-8-8-8-7--7--7--10-10-10-8-8-8-7--7--7--|
G|-------------8-8-------------8-8-------------------------------------------------|
C|---------------------------------------------------------------------------------|

d|--------------------------------------------------------------------------|
A|--------------------------------------------------------------------------|
F|--7-7-7-5-5-5-----7-7-7-5-5-5----------------9--9--------------9h10p9-----|
C|--------------7-7------------7-7-5-5-5-7-7-7-------5-5-5-7-7-7------------|
G|--------------------------------------------------------------------------|
C|--------------------------------------------------------------------------|
 |
d|--------------------------------------------------------------------------|
A|--------------------------------------------------------------------------|
F|--------------------------------------------------------------------------|
C|--8-8-8-7-7-7----8-8-8-7-7-7-----------------10-10-------------10h12p10---|
G|-------------8-8-------------8-8-7-7-7-8-8-8-------7-7-7-8-8-8------------|
C|--------------------------------------------------------------------------|

d|---------------------------------------------------------------------------------|
A|---------------------------------------------------------------------------------|
F|--7-7-7-5-5-5-----7-7-7-5-5-5----10-10-10-7-7-7----------10-10-10-7-7-7----------|
C|--------------7-7------------7-7----------------10-10-10----------------10-10-10-|
G|---------------------------------------------------------------------------------|
C|---------------------------------------------------------------------------------|
 |
d|---------------------------------------------------------------------------------|
A|---------------------------------------------------------------------------------|
F|---------------------------------------------------------------------------------|
C|--8-8-8-7-7-7----8-8-8-7-7-7-----10-10-10-8-8-8-7--7--7--10-10-10-8-8-8-7--7--7--|
G|-------------8-8-------------8-8-------------------------------------------------|
C|---------------------------------------------------------------------------------|

d|--------------------------------------------------------------------------|
A|--------------------------------------------------------------------------|
F|--7-7-7-5-5-5-----7-7-7-5-5-5----------------9--9--------------9h10p9-----|
C|--------------7-7------------7-7-5-5-5-7-7-7-------5-5-5-7-7-7------------|
G|--------------------------------------------------------------------------|
C|--------------------------------------------------------------------------|
 |
d|--------------------------------------------------------------------------|
A|--------------------------------------------------------------------------|
F|--------------------------------------------------------------------------|
C|--8-8-8-7-7-7----8-8-8-7-7-7-----------------10-10-------------10h12p10---|
G|-------------8-8-------------8-8-7-7-7-8-8-8-------7-7-7-8-8-8------------|
C|--------------------------------------------------------------------------|
_____________________________________________________________________________

Awesome part!(Breakdown 2?)

d|--------------------------------------|
A|--------------------------------------|
F|15--15--14-101010-15--15-14--1010-10--|
C|-x---x--x--x-x-x---x---x--x--x-x--x---|
G|13--13-12--8-8-8--13--13-12--8-8--8---|
C|--------------------------------------|
 |
d|--------------------------------------|
A|--------------------------------------|
F|--------------------------------------|
C|8-8-8-8-8---8-8-8-8-8---8-8-8-8-8-8---|
G|8-8-8-8-8---8-8-8-8-8---8-8-8-8-8-8---|
C|8-8-8-8-8-x-8-8-8-8-8-x-8-8-8-8-8-8---|

d|-----------------------------|
A|-----------------------------|
F|17--17-15--14-17--17-15-14---|
C|-x---x--x--x---x---x--x--x---|
G|15--15-13-12--15--15-13-12---|
C|-----------------------------|
 |
d|-----------------------------|
A|6-6-6-6---6-6-6-6---6-6-6----|
F|5-5-5-5---5-5-5-5---5-5-5----|
C|3-3-3-3---3-3-3-3---3-3-3----|
G|3-3-3-3---3-3-3-3---3-3-3----|
C|3-3-3-3-x-3-3-3-3-x-3-3-3----|

d|--------------------------------------|
A|--------------------------------------|
F|15--15--14-101010-15--15-14--1010-10--|
C|-x---x--x--x-x-x---x---x--x--x-x--x---|
G|13--13-12--8-8-8--13--13-12--8-8--8---|
C|--------------------------------------|
 |
d|--------------------------------------|
A|--------------------------------------|
F|--------------------------------------|
C|-10-10-10---10-10--10-10---10-10------|
G|-10-10-10---10-10--10-10---10-10------|
C|-10-10-10-x-10-10--10-10-x-10-10------|

d|-----------------------|
A|-----------------------|
F|-9-1017-9-1017-19-17---|
C|-x-x--x-x-x--x--x--x---|
G|-7-8-15-7-8-15-17-15---|
C|-----------------------|
 |
d|-----------------------|
A|-----------------------|
F|-12-12-12-12-12-12-12--|
C|-12-12-12-12-12-12-12--|
G|-12-12-12-12-12-12-12--|
C|-12-12-12-12-12-12-12--|


d|--------------------------------------|
A|--------------------------------------|
F|15--15--14-101010-15--15-14--1010-10--|
C|-x---x--x--x-x-x---x---x--x--x-x--x---|
G|13--13-12--8-8-8--13--13-12--8-8--8---|
C|--------------------------------------|
 |
d|--------------------------------------|
A|--------------------------------------|
F|--------------------------------------|
C|8-8-8-8-8---8-8-8-8-8---8-8-8-8-8-8---|
G|8-8-8-8-8---8-8-8-8-8---8-8-8-8-8-8---|
C|8-8-8-8-8-x-8-8-8-8-8-x-8-8-8-8-8-8---|

d|-----------------------------|
A|-----------------------------|
F|17--17-15--14-17--17-15-14---|
C|-x---x--x--x---x---x--x--x---|
G|15--15-13-12--15--15-13-12---|
C|-----------------------------|
 |
d|-----------------------------|
A|6-6-6-6---6-6-6-6---6-6-6----|
F|5-5-5-5---5-5-5-5---5-5-5----|
C|3-3-3-3---3-3-3-3---3-3-3----|
G|3-3-3-3---3-3-3-3---3-3-3----|
C|3-3-3-3-x-3-3-3-3-x-3-3-3----|

d|--------------------------------------|
A|--------------------------------------|
F|15--15--14-101010-15--15-14--1010-10--|
C|-x---x--x--x-x-x---x---x--x--x-x--x---|
G|13--13-12--8-8-8--13--13-12--8-8--8---|
C|--------------------------------------|
 |
d|--------------------------------------|
A|--------------------------------------|
F|--------------------------------------|
C|-10-10-10---10-10--10-10---10-10------|
G|-10-10-10---10-10--10-10---10-10------|
C|-10-10-10-x-10-10--10-10-x-10-10------|

d|--------------------------------|
A|--------------------------------|
F|-9--10-14-----------------------|
C|-x--x--x-------12-14h15p14-12---|
G|-7--8--12----13-----------------|
C|-----------12-------------------|
 |
d|--------------------------------|
A|--------------------------------|
F|-12-14-17-----------------------|
C|--x--x--x-----15--17h19p17-15---|
G|-10-12-15---16------------------|
C|----------15--------------------|

Guitar Break

d|---------------------------------------------------------|
A|---------------------------------------------------------|
F|---------------------------------------------------------|
C|-5-5-5-5-5-5-5-5-7-7-8-8-8-8-8-8-10-10-10-10-10-8---8----|
G|-5-5-5-5-5-5-5-5-7-7-8-8-8-8-8-8-10-10-10-10-10-8---8----|
C|-5-5-5-5-5-5-5-5-7-7-8-8-8-8-8-8-10-10-10-10-10-8---8----|
P.M* * * * * * * * * * * * * * * * * * * * * * *
________________________________________________________________

Chorus

d|------8-8-8----------8-8-8--------------------------|
A|----------------------------------------------------|
F|-5-5-5-------5-5-9-9-9------9-9-10-10-10-10-9-9-9---|
C|----------------------------------------------------|
G|----------------------------------------------------|
C|----------------------------------------------------|
 |
d|----------------------------------------------------|
A|-6-6-6-6-6-6-6-6------------------------------------|
F|-5-5-5-5-5-5-5-5-12-12-12-12-12-12-12-12-12-12-12---|
C|-3-3-3-3-3-3-3-3-10-10-10-10-10-12-12-12-10-10-10---|
G|-3-3-3-3-3-3-3-3-10-10-10-10-10-12-12-12-10-10-10---|
C|-3-3-3-3-3-3-3-3-10-10-10-10-10-12-12-12-10-10-10---|

d|-------8-8-8-----------8-8-8----------8-8-8-------------------------|
A|--------------------------------------------------------------------|
F|-7-7-7-------7-7-5-5-5-------5-5-9-9-9------9-9-9-10-0-9-10-12-10-9-|
C|--------------------------------------------------------------------|
G|--------------------------------------------------------------------|
C|--------------------------------------------------------------------|
 |
d|--------------------------------------------------------------------|
A|-----------------6-6-6-6-6-6-6-6------------------------------------|
F|-10101010101010105-5-5-5-5-5-5-5-12-12-12-12-12---------------------|
C|-8-8-8-8-8-8-8-8-3-3-3-3-3-3-3-3-10-10-10-10-10---------------------|
G|-8-8-8-8-8-8-8-8-3-3-3-3-3-3-3-3-10-10-10-10-10---7--8-0-10-8--7--5-|
C|-8-8-8-8-8-8-8-8-3-3-3-3-3-3-3-3-10-10-10-10-10-0-------------------|


d|-------8-8-8-----------8-8-8----------8-8-8-------------------------|
A|--------------------------------------------------------------------|
F|-7-7-7-------7-7-5-5-5-------5-5-9-9-9------9-9-10-10-10-10-9-9-9---|
C|--------------------------------------------------------------------|
G|--------------------------------------------------------------------|
C|--------------------------------------------------------------------|
 |
d|--------------------------------------------------------------------|
A|-----------------6-6-6-6-6-6-6-6------------------------------------|
F|-10101010101010105-5-5-5-5-5-5-5-12-12-12-12-12-12-12-12-12-12-12---|
C|-8-8-8-8-8-8-8-8-3-3-3-3-3-3-3-3-10-10-10-10-10-12-12-12-10-10-10---|
G|-8-8-8-8-8-8-8-8-3-3-3-3-3-3-3-3-10-10-10-10-10-12-12-12-10-10-10---|
C|-8-8-8-8-8-8-8-8-3-3-3-3-3-3-3-3-10-10-10-10-10-12-12-12-10-10-10---|

d|-------8-8-8-----------8-8-8----------------------------------------|
A|--------------------------------------------------------------------|
F|-7-7-7-------7-7-5-5-5-------5-5-9-9-9-9-9-9-9-9-9-9-9-9-b9-9-9-9-9-|
C|--------------------------------------------------------------------|
G|--------------------------------------------------------------------|
C|--------------------------------------------------------------------|
 |
d|--------------------------------------------------------------------|
A|-----------------6-6-6-6-6-6-6-6------------------------------------|
F|-10101010101010105-5-5-5-5-5-5-5-12-12-12-12-12-12-12-12-12-12-12---|
C|-8-8-8-8-8-8-8-8-3-3-3-3-3-3-3-3-10-10-10-10-10-12-12-12-10-10-10---|
G|-8-8-8-8-8-8-8-8-3-3-3-3-3-3-3-3-10-10-10-10-10-12-12-12-10-10-10---|
C|-8-8-8-8-8-8-8-8-3-3-3-3-3-3-3-3-10-10-10-10-10-12-12-12-10-10-10---|
_______________________________________________________________________

Outro


d|-------------------------------------------------------------------|
A|-------------------------------------------------------------------|
F|-------------------------------------------------------------------|
C|-------------------------------------------------------------------|
G|-----3-5-0------------3-5-0----------3-5-0-----------3-5-0-----5+--|
C|---0-------333555-6-0-------6-5-3-0-------333555-6-0-------5-6---0-|

d|-------------------------------------------------------------------------|
A|-------------------------------------------------------------------------|
F|-------------------------------------------------------------------------|
C|----------------------------------------5---3-5---5-7-0------------------|
G|-----3-5-0------------3-5-0------------5--0-------------6-5-6-5-6-5-6-5--|
C|---0-------333555-6-0-------6-5-3-0---3---------0-------6-5-6-5-6-5-6-5--|


d|---------------------|
A|---------------------|
F|---------------------|
C|-0---0---------0-----|
G|-0---0---------0-----|
C|-0---0--666555-0-----|
P.M       ******

That's it.  Hope it wasn't a complete nightmare to read.  It's 99% correct,
There are a few parts that are hard to hear.  If you have any comments,
corrections or questions feel free to email me.  Best of luck playing this.


| /  slide up
| \  slide down
| h  hammer-on
| p  pull-off
| ~  vibrato
| +  pinch harmonic
| x  Mute note

            
            
Suggest correction
Creating personal tab
Creating personal tab
You can edit any tab online and save it as your Personal.

You can edit, replace or remove any tab part or add personal notes – all changes will be seen only by you.

Personal tabs can be accessed anytime from any device, even offline.
Learn more »
Give kudos to tab author, rate the tab!
1 2 3 4 5
comments
print report bad tab
guest
You may want to rate the tab now too:
select rating
Wanna post a correction for this tab? Suggest correction