Oops, an error
Loading. Please wait.

To All The Crowded Rooms tab

version 2
version 2

Whole song

Interactive

754 views 1 this week
no commentswrite comment
1 2 3 4 5
3 more votes to show rating
add to favorites
×
Save as Personal and add changes to this tab that will be seen only by you. Learn more ›
×
You can save this tab as Personal to edit and correct it or add notes. All changes will be seen only by you. Learn more »
launch autoscroll
font size
0
reset
how to read this tab
guitar tuner
edit
Autoscroll
slow
fast
+/-
esc
set tempo
stop
Difficulty
intermediate
hey it's cam. well this is my first tab ever. so enjoy.
if any question email me at coheedcameron@yahoo.com or message me at 
but i wont write you back tho cause i probably dont know you. and if it does suck dont yell at me it's my 
tab.

intro:guitar 1(rythm)
e]-----------------------------------------------------|
b]-----------------------------------------------------|
g]-----------------------------------------------------|
d]9--9-9-9-9----5--5-5-5-5----0--0-0-0-0----0--0-0-0-0-|    (x2)
a]9--9-9-9-9----5--5-5-5-5----0--0-0-0-0----0--0-0-0-0-|
D]9--9-9-9-9----5--5-5-5-5----0--0-0-0-0----0--0-0-0-0-|

intro:guitar 2(lead)
e]----------------------|
b]----------------------|
g]-11-1111--9-99/12-----|
d]-x--x-x---x-xx/x------|    listen to the song to figure out how many times
a]-9--9-9---7-77/10-----|
D]----------------------|

verse:rythm
e]-------------------------------------------------------|
b]-------------------------------------------------------|
g]-------------------------------------------------------|
d]0-0-0--0-0-0--0-0-0--0-0-0--4-4-4--4-4-4--4-4-4--4-4-4-|
a]0-0-0--0-0-0--0-0-0--0-0-0--4-4-4--4-4-4--4-4-4--4-4-4-|      (x2)
D]0-0-0--0-0-0--0-0-0--0-0-0--4-4-4--4-4-4--4-4-4--4-4-4-|

PreChorus: rythm
e]-----------------------------------------------------------------|
b]-----------------------------------------------------------------|
g]-----------------------------------------------------------------|
d]-9--9-9-9-9--5--5-5-5-5-----------5~-----------------------------|
a]-9--9-9-9-9--5--5-5-5-5-(3x)------5~-----------------------------|
D]-9--9-9-9-9--5--5-5-5-5-----------5~-----------------------------|

Chorus:rythm
e]--------------------------------------------------------------|
b]--------------------------------------------------------------|
g]--------------------------------------------------------------|
d]-0--0-0-0-0--0--0-0-0-0---9--9-9-9-9--5--5-5-5-5--------------|
a]-0--0-0-0-0--0--0-0-0-0---9--9-9-9-9--5--5-5-5-5--------------|
D]-0--0-0-0-0--0--0-0-0-0---9--9-9-9-9--5--5-5-5-5--------------|

Chorus:Lead
Do The Same Thing as the intro

2verse:rythm
same

2Chorus:
same

when buddy starts singing "this can be your home when your all alone" play the intro.

interlude:rythm
e]-----------------------------------|
b]-----------------------------------|
g]-----------------------------------|
d]0~-------------4~------------------|
a]0~-------------4~------------------|      (x2)
D]0~-------------4~------------------|

interlude:lead
e]---------------------------------|
b]--------------------2-2b-2b-2b---|
g]---------------------------------|
d]---------------------------------|
a]---------------------------------|      (x2)
D]---------------------------------|

            
            
Suggest correction
Creating personal tab
Creating personal tab
You can edit any tab online and save it as your Personal.

You can edit, replace or remove any tab part or add personal notes – all changes will be seen only by you.

Personal tabs can be accessed anytime from any device, even offline.
Learn more »
Give kudos to tab author, rate the tab!
1 2 3 4 5
comments
print report bad tab
guest
Wanna post a correction for this tab? Suggest correction