Oops, an error
Loading. Please wait.

Happy Christmas War Is Over Tab

749 views 1 this week
no commentswrite comment
1 2 3 4 5
please rate
add to favorites
launch autoscroll
font size
0
reset
how to read this tab
guitar tuner
Autoscroll
slow
fast
+/-
esc
set tempo
stop
Help us to improve Ultimate-Guitar.com Take our survey!
×
Author
Difficulty
Tuning
BLUE3UN 4,218
intermediate
D A D G B E
INTRO 

Electric 1
Clean
E|----------------------------------------------------|
B|-12-10-13-12--13-12-15-13------------12-10-12-------|
G|--------------------------12-11-9-11----------12----|
D|-------------------------------------------------12-|
A|----------------------------------------------------|
D|----------------------------------------------------|

VERSE (part 1)

Electric 1
Clean
E|----------------------------------------------------|
B|-12-10-13-12--13-12-15-13------------12-10-12-------|
G|--------------------------12-11-9-11----------12----|
D|-------------------------------------------------12-|
A|----------------------------------------------------|
D|----------------------------------------------------|

Electric 2

E|---------------------------------------------|
B|---------------------------------------------|
G|-------7----------9----------7----------7----|
D|-------7-x2-------9-x2-------7-x2-------7-x2-|
A|---5---5------7---7------0---5------5---5----|
D|-5---5------7---7------0---0------5---5------|

VERSE (part 2)

Electric 1

E|-12-10-13-12-------------------------|
B|-------------------------------------|
G|-------------------------------------|
D|-------------12-11-14-12--10-9----9--|
A|-------------------------------12----|
D|-------------------------------------|

Electric 2

E|-------------------------------------------------|
B|-------------------------------------------------|
G|-------5----------7-------------12----------5----|
D|---5---5-x2---7---7-x2----12----12-x2---5---5-x2-|
A|-3---3-3----5---5-5----10----10-10----3---3-3----|
D|-------------------------------------------------|

PRE-CHORUS

Electric 1
Distortion
(multiples and pm)
E|-------------|
B|-------------|
G|-------------|
D|-------------| (this is played with the E2 from VERSE part 2)
A|-14-12-15-14-|
D|-------------|

CHORUS

Electric 1

E|-----------------------------|
B|-------------10-6-6----------|
G|-----7-7h9h9--------9p7------|
D|-3-5--------------------5-10-|
A|-3-5--------------------5-10-|
D|-3-5--------------------5-10-|

Electric 2

E|------------|
B|------------|
G|------------|
D|-3-5-0-5-10-|
A|-3-5-0-5-10-|
D|-3-5-0-5-10-|

VERSE (part 1)

Electric 1

E|-----------------------------------------------------------
B|--------8bb-------------10-10-12-13------------------------
G|----------------------9-------------9-12-11----12-11----11-
D|-9-9-9------9-9-9--10-----------------------12-------12-12-
A|-101010-----101010-----------------------------------------
D|-----------------------------------------------------------

-----------------------------------|
-----------------------------------|
-----------------------------------|
--9--9--9--7-7-7-10-10-10-9--9--9--|
--10-10-10-5-5-5-10-10-10-10-10-10-|
-----------------------------------|

Electric 2

E|-----------------------------------------------------|
B|-----------------------------------------------------|
G|----------12----------9----------7-------------12----|
D|----12----12-x2---9---9-x2---7---7-x2----12----12-x2-|
A|-10----10-10----7---7-7----5---5-5----10----10-10----|
D|-----------------------------------------------------|

VERSE (part 2)

Electric 1

E|-10-8---10-8-----10-8-7-------------------------|
B|------8------8-8--------8-7---------------------|
G|---------------7------------7-------------------|
D|------------------------------------------------|
A|-------------------------------9x6-7x6-10x6-9x6-|
D|------------------------------------------------|

PRE-CHORUS

CHORUS

SOLO

Electric 1

E|---------- ------------------------------------------19-20---------|
B|---------- ---------------------------------17-19-20---------------|
G|-10-12-14- -17\16\12/------------12h14h17x2----------------17-12-7-|
D|-x--x--x-- -x--x--x--x4--12h15x2---------------------------x--x--x-|
A|-8--10-12- -15\14\10/--------------------------------------15-10-5-|
D|---------- --------------------------------------------------------|

INTRO

VERSE (part 2)

PRE-CHORUS

CHORUS

OUTRO

Electric 1+2

E|--------------------|
B|--------------------|
G|--------------------|
D|-5-7-0-5--10-0-5-10-|
A|-5-7-0-5--10-0-5-10-|
D|-5-7-0-5--10-0-5-10-|
Suggest correction new What's this?
You can suggest a correction to this tab. Community and Mods will review your correction and vote to approve or reject it.
comments
We did not receive enough feedback on this tab! Please rate:
print report bad tab
1 2 3 4 5
guest
You may want to rate the tab now too:
select rating
Please do not post tabs as comments. Select "correction" instead!