Oops, an error
Loading. Please wait.

Need It Today tab

version 1
version 1

Whole song

Interactive

862 views 3 this week
1 commentread comment
1 2 3 4 5
2 more votes to show rating
add to favorites
×
Save as Personal and add changes to this tab that will be seen only by you. Learn more ›
×
You can save this tab as Personal to edit and correct it or add notes. All changes will be seen only by you. Learn more »
launch autoscroll
font size
0
reset
how to read this tab
guitar tuner
edit
Autoscroll
slow
fast
+/-
esc
set tempo
stop
Tuning Drop C

Listen to song for strumming pattern.


Intro

D|--------------------------------------------------|
A|--------------------------------------------------|
F|------11----9-6-13--------------------------------|
C|--0-|-x---0-x-x--x-0--4----4--7-6----------0------|
G|--0-|-9---0-7-4-11-0--4--7---4----2-4------0------|
C|--0-|-----0--------0--4---------------2-4--0------|

Verse 1
 Subtle in the background

D|--4-------4-----------9------|
A|-------5------5/7-10---------|
F|-----6------6------------9---| x2
C|-----------------------------|
G|-----------------------------|
C|-----------------------------|

Chorus same as intro

Verse 2

D|--------------------------|
A|--------------------------|
F|--------------------------|
C|--4--0--2--11--6--4--6----|
G|--4--0--2--9---7--5--7----|
C|--4--0--2--9---0--0--0----|
    pm and open mixed

D|----------------|
A|----------------|
F|----------------|
C|--0-2-6-6-9-----|
G|--0-0-2-4-7-----|
C|--0-0-2-4-7-----|

D|------------|
A|------------|
F|------------|
C|--0-2-6-----|
G|--0-0-2-----|
C|--0-0-2-----|

Chorus same as intro

Bridge

D|----------------------|
A|----------------------|
F|----------------------|
C|--2-4-2-4-2-4-2-4-----|
G|--2-4-2-4-2-4-2-4-----|
C|--2-4-2-4-2-4-2-4-----|

Soft Chorus

D|----------------|
A|----------------|
F|----------------| x4
C|--0--4--4-4-----|
G|--0--4--4-4-----|
C|--0--4--4-4-----|
      r     r

Chorus same as intro

Outro has no guitar but it sounds ok to play it this way.

D|--------------------|
A|--------------------|
F|--------------------|
C|--0--|--4--2--6--0--|
G|--0--|--4--2--2--0--| play this over and over until the end
C|--0--|--4--2--2--0--|

If you are confused watch this guitar cover from a dude in youtube, I did not make this
video no copyright intended
http://www.youtube.com/watch?v=fABgTro6Mrw

            
            
Suggest correction
Creating personal tab
Creating personal tab
You can edit any tab online and save it as your Personal.

You can edit, replace or remove any tab part or add personal notes – all changes will be seen only by you.

Personal tabs can be accessed anytime from any device, even offline.
Learn more »
Give kudos to tab author, rate the tab!
1 2 3 4 5
comments
print report bad tab
1 comment total.
0 reply
batman4ever 10 May 21, 2013 12:40 PM

u got the 4 and 6 mixed up on the 4th chord

guest
You may want to rate the tab now too:
select rating
Wanna post a correction for this tab? Suggest correction