Oops, an error
Loading. Please wait.

Killing Me Killing You Tab

version 1
version 1

Whole song

Interactive

14,624 views 9 this week
1 commentread comment
1 2 3 4 5
1 last vote to show rating
add to favorites
launch autoscroll
font size
0
reset
how to read this tab
guitar tuner
×
Best way to learn
"Killing Me Killing You"
Autoscroll
slow
fast
+/-
esc
set tempo
stop
Author
Tune your gtr 2 steps down to D.

(You can play the piano intro like this if you like) (x2)
   C5               G#5         Eb5       F5        Bb5       C5
D|-------------------------------------------------------------------------|
A|---------6--5------------------------------------------------------------|
F|---------------7---------------------------------------------------------|
C|-----7------------8--8--7--5--------5h7-5--5h7p5-------------------------|
G|--5---------------------------8--8----------------5h7p5-----5------------|
D|---------------------------------------------------------8---------------|

                    G#5         Eb5       Bb5        G5          C5
D|-------------------------------------------------------------------------|
A|---------6--5------------------------------------------------------------|
F|---------------7-----------5--------------------5--7------5--7-----------|
C|-----7------------8--8--7-----7--7--8--7--5--7---------7-----------------|
G|-------------------------------------------------------------------------|
D|-------------------------------------------------------------------------|

(I will skip the next piano, the verse starts here)

C5 C5           G#5 G#5  Bb5
        "Killing me killing you..."
F5 C5 Eb5 F5 G#5
C5 C5 G#5 G#5 Bb5
F5 C5 Eb5 F5 Bb5

(1:08)
D|-------------------------------------------------------------------------|
A|-------------------------------------------------------------------------|
F|--7--7--7--7--7--7\------------------------------------------------------|
C|--7--7--7--7--7--7\--3--3--3--3--3--3--3---------------------------------|
G|--5--5--5--5--5--5\--3--3--3--3--3--3--3---------------------------------|
D|---------------------1--1--1--1--1--1--1---------------------------------|

D|-------------------------------------------------------------------------|
A|--------6-----6----------------------------------------------------------|
F|--7--7--7--7--7--7\------------------------------------------------------|
C|--7--7--7--7--7--7\--5--5--5--5--3--3--2---------------------------------|
G|--5--5--5--5--5--5\--5--5--5--5--3--3--2--5~-----------------------------|
D|---------------------3--3--3--3--1--1--0---------------------------------|

(After piano part at 1:50)
   x  x
                                                                    xxx
D|-------------------------------------------------------------------------|
A|-------------------------------------------------------------------------|
F|--------------------------------------------------------------------5----|
C|-------------------------------------------------------------------5-----|
G|------------------------------------------------------------------3------|
D|-5--5--------------------------------------------------------------------|
         C5 D5 C5 F5 Bb5

              x  x
D|-------------------------------------------------------------------------|
A|-------------------------------------------------------------------------|
F|-12--9--12---------------------------------------------------------------|
C|--------12---------------------------------------------------------------|
G|-------------------------------------------------------------------------|
D|------------5--5---------------------------------------------------------|
                         C5 D5 C5 F5 G5

D|-------------------------------------------------------------------------|
A|-------------------------------------------------------------------------|
F|-------------------------------------------------------------------------|
C|--8--10--8--7~-----------------------------------------------------------|
G|-------------------------------------------------------------------------|
D|-------------------------------------------------------------------------|

(2:43)

G#5  C5
D|-------------------------------------------------------------------------|
A|-------------------------------------------------------------------------|
F|--7-7-7----7--10-10--9p7h9-7---------------------------------------------|
C|--------7---------------------7------------------------------------------|
G|---------------------------------8--7--5---------------------------------|
D|-------------------------------------------------------------------------|

G#5   F5   G5 G#5 C5
D|-------------------------------------------------------------------------|
A|-------------------------------------------------------------------------|
F|--7-7-7----7--10-10--9p7h9-7---------------------------------------------|
C|--------7---------------------7------------------------------------------|
G|---------------------------------8--7------------------------------------|
D|-------------------------------------------------------------------------|

Bb5  F5  Eb5 Bb5 C5
           Bb5
        "...kills away"
C#5 C#5 Bb5 F5

[Verse 2] 
steps higher (x2)

D5 D5 Bb5 Bb5 C5
G5 D5 F5 G5 Bb5
D5 D5 Bb5 Bb5 C5
G5 D5   F5 G5 C5

[Ending] 
(4:27)
D5 Bb5 F5 G5
D5 Bb5 F5 C5
D5 Bb5 F5 G5
D5 Bb5 F5 C5

D|-------------------------------------------------------------------------|
A|-------------------------------------------------------------------------|
F|--9--9--9--9--9--9\------------------------------------------------------|
C|--9--9--9--9--9--9\--5--5--5--5--5--5--5---------------------------------|
G|--7--7--7--7--7--7\--5--5--5--5--5--5--5---------------------------------|
D|---------------------3--3--3--3--3--3--3---------------------------------|

D|-------------------------------------------------------------------------|
A|--------8-----8----------------------------------------------------------|
F|--9--9--9--9--9--9\------------------------------------------------------|
C|--9--9--9--9--9--9\--9--9--7--7--5--5--4--2------------------------------|
G|--7--7--7--7--7--7\--9--9--7--7--5--5--4--2------------------------------|
D|---------------------7--7--5--5--3--3--2--0------------------------------|


************************************

| h  Hammer-on
| p  Pull-off
| \  Slide down
| ~  Vibrato

************************************
Suggest correction
Give kudos to tab author, rate the tab!
1 2 3 4 5
comments
print report bad tab
1 comment total.
0 reply
guitarguru167 10 Sep 25, 2008 07:58 PM

i wish they didn't break up =(

guest
You may want to rate the tab now too:
select rating
Wanna post a correction for this tab? Suggest correction