Oops, an error
Loading. Please wait.

Mourn Tab

version 1
version 1

Whole song

Interactive

11,587 views 15 this week
1 commentread comment
1 2 3 4 5
1 last vote to show rating
add to favorites
launch autoscroll
font size
0
reset
how to read this tab
guitar tuner
backing track
0:00
0:00
×
Best way to learn
"Mourn"
Autoscroll
slow
fast
+/-
esc
set tempo
stop
Standard Tuning 

e|--------------------------------------r-----------------|
B|-8p7p8---7p8p7--7p5---------8h7p8--10full---7-7p8\5-----|
G|----------------------7/9---------------------------7/9-|
D|--------------------------------------------------------|
A|--------------------------------------------------------|
E|--------------------------------------------------------|

(All natural Harmonics)
e|------------------12-14----------|
B|---------------12-------14-------|
G|------------12-------------14----|
D|---------14----------------------|
A|------14-------------------------|
E|---12----------------------------|

(Riff 1)
         E                         A
e|--------------------------------10--10-8p7h8---8-8-7-----|
B|------8h7p8--7h8------7h8/10-10--------------------------|
G|-----------------9--9------------------------------------|
D|---------------------------------------------------------|
A|---------------------------------------------------------|
E|---------------------------------------------------------|
                             
     D                  F         E
e|---------------------8--8-8h10p7-----|
B|--10--8-8h10-7--8-10-----------------|
G|-------------------------------------|
D|-------------------------------------|
A|-------------------------------------|
E|-------------------------------------|

       C                        A                               C
e|-7-------------------------------------------------------------|
B|----8-8-7-8--7-7h8---------------r----------------5-7--7h8\5/7~|
G|-------------------9--9-7-5-4h5-full-4h5----4-5-7--------------|
D|------------------------------------------7--------------------|
A|---------------------------------------------------------------|
E|---------------------------------------------------------------|

                      E  C                A  is played with
e|----------r-----------10/12--12-14-15-----another-guitar...-|
B|:7-8-10-10full-10p8--------------------13--13h15p13-12\10----|
G|-------------------9-------------------------------------12-|
D|------------------------------------------------------------|
A|------------------------------------------------------------|
E|------------------------------------------------------------|

(Fill 2)
    D        G    g2          C                     B
e|-10-12-14------------------8-7-----r----------------7-8-7----7-8-7-|
B|----------12--10---------------8-10full--10p8h10-10-------10-------|
G|-----------------12-11---------------------------------------------|
D|-------------------------------------------------------------------|
A|-------------------------------------------------------------------|
E|-------------------------------------------------------------------|

[Bridge] (4x)
e|-----------------------------------------------------------------------------|
B|-----------------------------------------------------------------------------|
G|-----------------------------------------------------------------------------|
D|--4-2----4-2----4-2--5-2----5-2----5-2--4-2----4-2----4-2--5-2----5-2-----5-2|
A|------2------2-----------2------2-----------2------2-----------2-------2-----|
E|-----------------------------------------------------------------------------|

                           E     A.H
e|---7-------------------------------------------------------|
B|-----8--------------------8---10---------------------------|
G|-------9---------7~/9--------------9-7-5-4-----------------|
D|---------9-9-7-9---------------------------7-5-4-----------|
A|-------------------------------------------------7---------|
E|-----------------------------------------------------------|

    C                                                            E
e|----7h8h10-8-7-7h8-8-8p7---7-8--7-8----8---8---8---8---8-------------------|
B|-10---------------------10----------10---8---7---5---4---4h5h7p5--5h7h8p7p5|
G|---------------------------------------------------------------------------|
D|---------------------------------------------------------------------------|
A|---------------------------------------------------------------------------|
E|---------------------------------------------------------------------------|

                        C
e|----------------------------------------------5---------------8-7-5--7-5-3--5-3-2--3-2-0|
B|----------------------------------------5-7-8---8-7-5-----------------------------------|
G|-5-4-2----------------------------------------------------------------------------------|
D|-------5-4-2---2-----------2--2-4-5-2---------------------------------------------------|
A|-----------------5-3-2------------------------------------------------------------------|
E|-----------------------5-3--------------------------------------------------------------|

(Fill 1)
e|------------------------------|
B|------------------------------|
G|---9-7---7--------------------|
D|-------9---9-7-9-7---7--------|
A|-------------------9---9-7----|
E|------------------------------|

(Fill 2)
e|-----7-8-7--7-8-10-8-7-7h8p7-5full----------------------------------|
B|--10-------------------------------7-7-8-8-5-5-4-4------------------|
G|---------------------------------------------------5-5-4-4----------|
D|-----------------------------------------------------------6-6-5-5--|
A|--------------------------------------------------------------------|
E|--------------------------------------------------------------------|


************************************

| r  Release
| h  Hammer-on
| p  Pull-off
| \  Slide down
| /  Slide up
| ~  Vibrato

************************************
Suggest correction
Give kudos to tab author, rate the tab!
1 2 3 4 5
comments
print report bad tab
1 comment total.
0 reply
\m/(>_<)\m/ 102 Mar 07, 2009 03:36 AM

thanks for posting this!

guest
You may want to rate the tab now too:
select rating
Wanna post a correction for this tab? Suggest correction