Oops, an error
Loading. Please wait.

En Mi Cabeza Bass

7 views 1 this week
no commentswrite comment
1 2 3 4 5
3 more votes to show rating
add to favorites
launch autoscroll
font size
0
reset
guitar tuner
×
Best way to learn
"En Mi Cabeza"
Autoscroll
slow
fast
+/-
esc
set tempo
stop
 InTrO.

 |----------------------------------------------------------|
 |----------------------------------------------------------|
 |----------------------------------------------------------|
 |----------------------------------------------------------|    (x2) 
 |---4--4---4----------------3--3---3-----------------------|  
 |---------------5--5---5----------------4--4---4-----------|


 EstRoFas.

 |----------------------------------------------------------|
 |----------------------------------------------------------|
 |----------------------------------------------------------|
 |----------------------------------------------------------|    (x4) 
 |---4--4---4----------------3--3---3-----------------------|  
 |---------------5--5---5----------------4--4---4-----------|
  


 CoRoS: 

 |--------------------------------------------|
 |--------------------------------------------|
 |--------------------------------------------|
 |--------------------------------------------|    (x4) 
 |--------------------------------------------|  
 |-----4--4--4--4----0--0--0--0---------------| 


 bRiGde:

 |--------------------------------------------|
 |--------------------------------------------|
 |--------------------------------------------|
 |--------------------------------------------|    (x4) 
 |--------------------------------3--3--3--3--|  
 |----0--0--0--0--0------1--1--1--1--1--------|


  SoLO:

 
 |----------------------------------------------------------|
 |----------------------------------------------------------|
 |----------------------------------------------------------|
 |----------------------------------------------------------|    (x4) 
 |---4--4---4----------------3--3---3-----------------------| PALm mUtE 
 |---------------5--5---5----------------4--4---4-----------|Usar PluMiLLa
   

 OuTrO: 


 |----------------------------------------------------------|
 |----------------------------------------------------------|
 |----------------------------------------------------------|
 |----------------------------------------------------------|    (x4) 
 |---4--4---4----------------3--3---3-----------------------|  
 |---------------5--5---5----------------4--4---4-----------|
  

Estructura de La canción:

IntRo
EsTRoFa
cOro
EsTRoFa
cOro
bRiGdE
solo de bajo
esTrofa aCompAÑadO Del BajO
cOro
EsTRoFa
cOro
OuTrO
Suggest correction
Give kudos to tab author, rate the tab!
1 2 3 4 5
comments
print report bad tab
guest
You may want to rate the tab now too:
select rating
Wanna post a correction for this tab? Suggest correction