Oops, an error
Loading. Please wait.

En Mi Cabeza Tab

7 views 1 this week
no commentswrite comment
1 2 3 4 5
3 more votes to show rating
add to favorites
launch autoscroll
font size
0
reset
how to read this tab
guitar tuner
Autoscroll
slow
fast
+/-
esc
set tempo
stop
Help us to improve Ultimate-Guitar.com Take our survey!
×
InTrO.

 |----------------------------------------------------------------------|
 |----------------------------------------------------------------------|
 |---6--6---6----------------5--5---5---------------X--X--X--X----------|
 |---6--6---6----7--7---7----5--5---5----6--6---6---X--X--X--X----------|    (x2) 
 |---4--4---4----7--7---7----3--3---3----6--6---6---X--X--X--X----------| SiN DisTOrsIoN 
 |---------------5--5---5----------------4--4---4---X--X--X--X----------|


 EstRoFas.

 |----------------------------------------------------------------------|
 |----------------------------------------------------------------------|
 |---6--6---6----------------5--5---5---------------X--X--X--X----------|
 |---6--6---6----7--7---7----5--5---5----6--6---6---X--X--X--X----------|    (x4) 
 |---4--4---4----7--7---7----3--3---3----6--6---6---X--X--X--X----------| DisTOrsIoN 
 |---------------5--5---5----------------4--4---4---X--X--X--X----------|
  


 CoRoS: 

 |--------------------------------------------|
 |--------------------------------------------|
 |--------------------------------------------|
 |-----6--6--6--6----0--0--0--0---------------|    (x4) 
 |-----6--6--6--6----0--0--0--0---------------| DisTOrsIoN y ChOruS 
 |-----4--4--4--6----0--0--0--0---------------| 


 bRiGde:

 |--------------------------------------------|
 |--------------------------------------------|
 |--------------------------------------------|
 |----2--2--2--2--2------3--3--3--3--3--------|    (x4) 
 |----2--2--2--2--2------3--3--3--3--3--------| DisTOrsIoN y DeLAy 
 |----0--0--0--0--0------1--1--1--1--1--------|


 OuTrO.

 |----------------------------------------------------------------------|
 |----------------------------------------------------------------------|
 |---6--6---6----------------5--5---5---------------X--X--X--X----------|
 |---6--6---6----7--7---7----5--5---5----6--6---6---X--X--X--X----------|    (x2) 
 |---4--4---4----7--7---7----3--3---3----6--6---6---X--X--X--X----------| DisTOrsIoN y ChORus
 |---------------5--5---5----------------4--4---4---X--X--X--X----------|


Estructura de La canción:

IntRo
EsTRoFa
cOro
EsTRoFa
cOro
bRiGdE
solo de bajo
esTrofa aCompAÑadO Del BajO
cOro
EsTRoFa
cOro


Toquenla hasta que les sangren las manos,
es una canción de la P.M.

(Es estilo Punk rock- Grungre)
Suggest correction
Give kudos to tab author, rate the tab!
1 2 3 4 5
comments
print report bad tab
guest
You may want to rate the tab now too:
select rating
Wanna post a correction for this tab? Suggest correction