Oops, an error
Loading. Please wait.

Resiste Bass Tab

32 views 1 this week
no commentswrite comment
1 2 3 4 5
3 more votes to show rating
add to favorites
launch autoscroll
font size
0
reset
guitar tuner
×
Best way to learn
"Resiste"
Autoscroll
slow
fast
+/-
esc
set tempo
stop
INTRO
UN SLIDE EN MI del 12 hasta el cero E--12/0 que dure dos tiempos

Aunque no lo creas tiene burda de semejanza al el feeling
de Soda stereo ( Sueles dejarme solo )

aunque se ven variaciones minoritaria cosa que se nota en vivo.

 Este es el bajeo normal       | este cambio es opcional
 puede intercambiar el utimo   | y se aplica 2 veces
 Con el siguiente              |
G|--------------|--------------|----------|
D|--------------|--------------|----------|
A|------7-3-3-3-|5-p-7-5^^^----|-3p-5-3---|
E|-0-0----------|--------------|----------|
 |   Riff fijo  | Los que se intercambian |


EL VERSO                            |Puedes vacilarte ste slide para    (0:40)
                                    |         indicar el cambio 
G|----------------------------|-----|-----|Suspendiendo el cambio 5-3
D|----------------------------|-----|-----| 
A|----------------5--5--------|-----|-7/3-|
E|-0--0-0--5--5-5------0--0-0-|-5-3-|-----|

Unos dias y otros no... que me detesta.
G|-----------------------------------|------------|
D|-----------------------------------|------------|
A|-7--7--7-7p-9---------7-5--5-5--7--|-7-5--------|
E|--0--0--------5-5-7-8--------------|-----8-7-5--|

Y tu cabeza esta                |Yo veo al futuro .....no para
G|------------------------------|---------------------------|-final----|
D|------------------------------|---------------------------|----------|
A|-------------------5-5-2--3p-5|--------------------5-5-2-3|-3-2------|
E|-3--3-3-3--5-5-5-5------------|-3--3-3--3-5--5-5-5--------|-----5-3--|

  EN EL SOLO PUEDES HACER ESTO O  LA PARTA DE Y U CABEZA ESTA LLENA DE RATA 
  SIN EL FINAL
G|----------------------------------------------|
D|----------------------------------------------|Lo Repites 2 veces
A|--------------------5-5-5--5--3-3-3-3---------|Y le metes la parte de Unos dias...
E|-3--3-3--3-5--5-5-5---------------------------|

Ya solo te queda armala es facil sencilla, de letra profunda
Es una buena cancion. Unas de la mejores de la BERSUIT.
Felicitaciones a Pablo  por el mamaro tabs que se tiro de esta cancion.
Trata de guiarte por los beat de la bateria... Suerte.
Cualquier duda mandamela a THE_BASTARDO@
Suggest correction
Give kudos to tab author, rate the tab!
1 2 3 4 5
comments
print report bad tab
guest
You may want to rate the tab now too:
select rating
Wanna post a correction for this tab? Suggest correction