Oops, an error
Loading. Please wait.

Resiste Chords

version 1
version 1

Whole song

19 views 1 this week
no commentswrite comment
1 2 3 4 5
3 more votes to show rating
add to favorites
launch autoscroll
font size
0
reset
transpose
0
reset
display chords
guitar tuner
×
Best way to learn
"Resiste"
Autoscroll
slow
fast
+/-
esc
set tempo
stop
RESISTE SENTIMIENTO MUERTO

-R-I-F-F----P-R-I-N-C-I-P-A-L----------------
--------------------------------------------
-----------------5-5-5-5--------------------
-7-7-7-7-3-3-3-3---------3-3-3-3------------

-verso 1-(... parada en al frente-...-hasta-...-de canela-) Solo en el primer verso lo hace
---------------------------------------------------
---------------------------------------------------
-7-7-7-7-7-7-7-7-7-7-7-7-7-7-7-7-7-7-7-7-7-7-7-7-7-

-coro---------------------------------------
--------------------------------------------
-3-3-3-3--7-7-7-7-2-2-2-2-------------------
--------------------------3-3-3-3-----------

----5----5----9---9---4---4--------cambio alterno---
---------------------------------5/7----------------
-333--333--777--777--222--222-----------------------
------------------------------3---------------------

Sentimiento MUERTO II Resiste

B - G - D - G

SI PEGADISIMO

Parada en la frente; en el frente del edificio
Sentimiento dando otra vuelta de canela,

B                      G    D     G
Preguntando si a esto lo llaman vivir,
B            G          D   G
O si es otra forma de morir.

Coro
C       Em     
Resiste; no te dejes maltratar
B       G
Resiste; esto tiene que acabar

Y ASI SIGUE TODITICA LA CANCION ME FALTA EL PUNTEO
O UNA ESCALA QUE HACE POR NOTA PERO LUEGO SE LAS
MANDO...

B       SOl D            G
Eres dura; dura contigo misma
El llanto termina en aguacero,
Parada en la cera, de repente desespera,
Por que todas las ventanas miran para afuera,

Coro...

Hay carajita alimenta tu paciencia
Cuando sientas que te invade la nostalgia
Intento de ayuda esta noche te empampas de magia
Pero has hecho una barrera para que no pueda descansar Hey Resiste

No te dejes maltratar
Resiste en algún momento esto tiene que acabar

Resiste
Resiste

Solo

Cualquier duda al respecto THE_BASTARDO@ o RAMMSQUAKE@
Suggest correction
Give kudos to tab author, rate the tab!
1 2 3 4 5
comments
print report bad tab
guest
You may want to rate the tab now too:
select rating
Wanna post a correction for this tab? Suggest correction