Oops, an error
Loading. Please wait.

Change Your Colours tab

164 views 1 this week
no commentswrite comment
1 2 3 4 5
3 more votes to show rating
add to favorites
×
Save as Personal and add changes to this tab that will be seen only by you. Learn more ›
×
You can save this tab as Personal to edit and correct it or add notes. All changes will be seen only by you. Learn more »
launch autoscroll
font size
0
reset
how to read this tab
guitar tuner
edit
Autoscroll
slow
fast
+/-
esc
set tempo
stop
::septembre::
-------------
CHANGE YOUR COLOURS (track №12 from the Rock Sound: Music with Attitude (Volume 60))
------------------------------------------------------------------------------------
Guitars & Vocal parts by Terry Abbott (ex-Vex Red)
Bass part by Manuel Carrero (from Glassjaw)
Drums part by Ash Soan (http://www.ashsoan.com/)
Produced by Ross Robinson (http://rossrobinson.co/)
---------------------------------------------------
Guitar tab by Andrew A. Terexin (Russia/Moscow) [6.s8dashes@gmail.com]
Used: Epiphone Les Paul Studio with D'Addario 12-52 jazz steel strings,
Digitech RP-155, Line 6 Toneport GX Mk2, Guitar Rig 5 Player
------------------------------------------------------------
Tuning: Drop C (C G C F A D)

1) Intro
D|------------------------------------------------------------------------------------------------------------|
A|------------------------------------------------------------------------------------------------------------|
F|------------------------------------------------------------------------------------------------------------|
C|--0-/12-10-12-0--/12-10-12-0--/12-10-12-0--/12-10-12-0--/12-10-12-0--/12-10-12-0--/12-10-12-0--/12-10-12-0--|
G|--0-/12-10-12-0--/12-10-12-0--/12-10-12-0--/12-10-12-0--/12-10-12-0--/12-10-12-0--/12-10-12-0--/12-10-12-0--|
C|--0-/12-10-12-0--/12-10-12-0--/12-10-12-0--/12-10-12-0--/12-10-12-0--/12-10-12-0--/12-10-12-0--/12-10-12-0--|
                                                                                                           .
Pre-1st chorus
2) Clean
D|-------------------------------------------------------------------------------------|
A|-------------------------------------------------------------------------------------|
F|--14--14-14-14-14--14-14--14-14-14-14--14-14--14-14-14-14--14-14--12-12-12-12-12-12--|
C|--12--12-12-12-12--12-12--12-12-12-12--12-12--12-12-12-12--12-12--10-10-10-10-10-10--|
G|--12--12-12-12-12--12-12--12-12-12-12--12-12--12-12-12-12--12-12--10-10-10-10-10-10--|
C|--12--12-12-12-12--12-12--12-12-12-12--12-12--12-12-12-12--12-12--10-10-10-10-10-10--|

D|-------------------------------------------------------------------------------------|
A|-------------------------------------------------------------------------------------|
F|--14--14-14-14-14--14-14--14-14-14-14--14-14--14-14-14-14--14-14--12-12-12-12-12-12--|
C|--12--12-12-12-12--12-12--12-12-12-12--12-12--12-12-12-12--12-12--12-12-12-12-12-12--|
G|--12--12-12-12-12--12-12--12-12-12-12--12-12--12-12-12-12--12-12--10-10-10-10-10-10--|
C|--12--12-12-12-12--12-12--12-12-12-12--12-12--12-12-12-12--12-12--10-10-10-10-10-10--|

3)
D|--------------|
A|--------------|
F|--------------|
C|--0-10-4-0-5--|
G|--0-10-4-0-5--|
C|--0-10-4-0-5--|

Chorus
4)
D|--------------------------------------------------------------|
A|--------------------------------------------------------------|
F|--------------------------------------------------------------|
C|--0-/10-10\9-0-0-3/4-0-0--7/8-8-8-x-3-3-3-9/10-10-10-x-5-5-5--|
G|--0-/10-10\9-0-0-3/4-0-0--7/8-8-8-x-3-3-3-9/10-10-10-x-5-5-5--|
C|--0-/10-10\9-0-0-3/4-0-0--7/8-8-8-x-3-3-3-9/10-10-10-x-5-5-5--|

5)
D|------|
A|------|
F|------|
C|--0~--|
G|--0~--|
C|--0~--|

Pre-bridge
6)
D|----------------------|
A|----------------------|
F|--7---7---7-----------|
C|--x-0-x-0-x-0-0-0--0--|
G|--5-0-5-0-5-0-0-0--0--|
C|----0---0---0-0-0--0--|
                . .  .
7)
D|-----------------------|
A|-----------------------|
F|-----------------------|
C|--0-10-4-0-5-----------|
G|--0-10-4-0-5-----------|
C|--0-10-4-0-5~----/12p--|
             .

8)
D|---------------------------------------------------------------|
A|---------------------------------------------------------------|
F|---------------------------------------------------------------|
C|---------------------------------------------------------------|
G|---------------------------------------------------------------|
C|--t12p10h12p0-t12p10h12p0-t12p10h12p0-t12p10h12p0-t12p10h12p0--|

Bridge
9)
D|-------------------------------------------------------------------------------------------------|
A|-------------------------------------------------------------------------------------------------|
F|-------------------------------------------------------------------------------------------------|
C|--0-/12-10-12-0--/12-10-12-0--/12-10-12-0--/12-10-12-0--/12-10-12-0--/12-10-12-0--/12-10-12---0--|
G|--0-/12-10-12-0--/12-10-12-0--/12-10-12-0--/12-10-12-0--/12-10-12-0--/12-10-12-0--/12-10-12---0--|
C|--0-/12-10-12-0--/12-10-12-0--/12-10-12-0--/12-10-12-0--/12-10-12-0--/12-10-12-0--/12-10-12---0--|
                                                                                                .
10)
D|-----------------------------------------------------------------------------------------------|
A|-----------------------------------------------------------------------------------------------|
F|-----------------------------------------------------------------------------------------------|
C|--0-/12-10-12-0--/12-10-12-0--/12-10-12-0--/12-10-12-0--/12-10-12-0--/12-10-12-0--/12-10-12-0--|
G|--0-/12-10-12-0--/12-10-12-0--/12-10-12-0--/12-10-12-0--/12-10-12-0--/12-10-12-0--/12-10-12-0--|
C|--0-/12-10-12-0--/12-10-12-0--/12-10-12-0--/12-10-12-0--/12-10-12-0--/12-10-12-0--/12-10-12-0--|

D|--------------------------|
A|--------------------------|
F|--------------------------|
C|--/12-10-12-0--/12-10-12--|
G|--/12-10-12-0--/12-10-12--|
C|--/12-10-12-0--/12-10-12--|

Pre-3rd chorus
11)
D|-----------------------|
A|-----------------------|
F|-----------------------|
C|--4/5-5/6-6/7-5/6-3/5--|
G|--4/5-5/6-6/7-5/6-3/5--|
C|--4/5-5/6-6/7-5/6-3/5--|

3rd part of 3rd chorus
12)
D|--------------------------------------------------------------|
A|--------------------------------------------------------------|
F|--------------------------------------------------------------|
C|--0-0-0-10-0-3/4-4-4-0-0--7/8-8-8-x-3-3-3-9/10-10-10-x-5-5-5--|
G|--0-0-0-10-0-3/4-4-4-0-0--7/8-8-8-x-3-3-3-9/10-10-10-x-5-5-5--|
C|--0-0-0-10-0-3/4-4-4-0-0--7/8-8-8-x-3-3-3-9/10-10-10-x-5-5-5--|

Sequence:
1)x1
2)x2
3)x1
4)x2
5)x1
=/
4)x4
6)x4
7)x1
8)x3
9)x1
10)x1
11)x1
4)x2
12)x1
4)x1
6)x1

SYMBOLS
-------
/ - slide up
\ - slide down
h - hammer-on
p - pull-off
t - tapping
. - palm muting

SOME NOTES
----------
So, as I promised:
CHANGE YOUR COLOURS - is the only :septembre's:: song of all Ross Robinson's "I AM RECORDINGS"
demo-sessions released officially on a cd-application to the May/2004 Rock Sound's magazine issue.

As you can see whole song dominated by a slide which makes it a bit difficult for beginners who like
power chords. The only thing that I have not yet to figure out is 2nd pre-chorus. Terry use a tremolo pedal
effect on this part and because of this I just do not get to hear this notes and their sequence.
Please write this in the comments if you able to figure it out!
For the rest, everything has to be the right.

Thank you very much. Enjoy it! I hope this helps.

P.S. Sorry for my curve english if that isn't so.

            
            
Suggest correction
Creating personal tab
Creating personal tab
You can edit any tab online and save it as your Personal.

You can edit, replace or remove any tab part or add personal notes – all changes will be seen only by you.

Personal tabs can be accessed anytime from any device, even offline.
Learn more »
Give kudos to tab author, rate the tab!
1 2 3 4 5
comments
print report bad tab
guest
You may want to rate the tab now too:
select rating
Wanna post a correction for this tab? Suggest correction