Oops, an error
Loading. Please wait.

Pale Beauty Of The Past tab

976 views 1 this week
3 commentsread comments
1 2 3 4 5
2 more votes to show rating
add to favorites
×
Save as Personal and add changes to this tab that will be seen only by you. Learn more ›
×
You can save this tab as Personal to edit and correct it or add notes. All changes will be seen only by you. Learn more »
launch autoscroll
font size
0
reset
how to read this tab
guitar tuner
edit
Autoscroll
slow
fast
+/-
esc
set tempo
stop
  Pale Beauty Of The Past                             


                                                                    Septic Flesh
Electric guitar



     W                   W                   W                 
E||-------------------|-------------------|-------------------|
B||-------------------|-------------------|-------------------|
G||-------------------|-------------------|-------------------|
D||-------------------|-------------------|-------------------|
A||-------------------|-------------------|-------------------|
D||-------------------|-------------------|-------------------|


  W                   H        H           W                 
-------------------|--------------------|-------------------|
-------------------|--------------------|-------------------|
-------------------|--------------------|-------------------|
-------------------|--------------------|-------------------|
-------------------|-----------2--------|--4----------------|
-------------------|--0-----------------|-------------------|


  H        Q    Q       H        H           S S S S S S S S S S S S S S S S  
---------------------|--------------------|----------------------------------|
---------------------|--------------------|--------------------------1-1-1-1-|
---------------------|--------------------|------------------0-0-0-0---------|
---------------------|--------------------|----------1-1-1-1-----------------|
-----------2----4----|--------------------|--3-3-3-3-------------------------|
--0------------------|--4--------3--------|----------------------------------|


  S S S S S S S S S S S S S S S S    S S S S S S S S S S S S S S S S  
----------------------------------|----------------------------------|
--4-4-4-4-------------------------|----------------------------------|
----------5-5-5-5-----------------|----------------------------------|
------------------6-6-6-6-5-5-5-5-|----------------------------------|
----------------------------------|--2-2-2-2-2-2-2-2-2-2-2-2-2-2-2-2-|
----------------------------------|----------------------------------|


  S S S S S S S S S S S S S S S S    S S S S S S S S S S S S S S S S  
----------------------------------|----------------------------------|
----------------------------------|--------------------------1-1-1-1-|
----------------------------------|------------------0-0-0-0---------|
----------------------------------|----------1-1-1-1-----------------|
----------------------------------|--3-3-3-3-------------------------|
--5-5-5-5-5-5-5-5-6-6-6-6-5-5-5-5-|----------------------------------|


  S S S S S S S S S S S S S S S S    W                   W                 
----------------------------------|-------------------|-------------------|
--4-4-4-4-------------------------|-------------------|-------------------|
----------5-5-5-5-----------------|-------------------|-------------------|
------------------6-6-6-6-5-5-5-5-|--4----------------|--3----------------|
----------------------------------|--2----------------|--1----------------|
----------------------------------|-------------------|-------------------|


  S S S S S S S S S S S S S S S S    S S S S S S S S S S S S S S S S  
----------------------------------|----------------------------------|
--------------------------1-1-1-1-|--4-4-4-4-------------------------|
------------------0-0-0-0---------|----------5-5-5-5-----------------|
----------1-1-1-1-----------------|------------------6-6-6-6-5-5-5-5-|
--3-3-3-3-------------------------|----------------------------------|
----------------------------------|----------------------------------|


  S S S S S S S S S S S S S S S S    S S S S S S S S S S S S S S S S  
----------------------------------|----------------------------------|
----------------------------------|----------------------------------|
----------------------------------|----------------------------------|
----------------------------------|----------------------------------|
--2-2-2-2-2-2-2-2-2-2-2-2-2-2-2-2-|----------------------------------|
----------------------------------|--5-5-5-5-5-5-5-5-6-6-6-6-5-5-5-5-|


  S S S S S S S S S S S S S S S S    S S S S S S S S S S S S S S S S  
----------------------------------|----------------------------------|
--------------------------1-1-1-1-|--4-4-4-4-------------------------|
------------------0-0-0-0---------|----------5-5-5-5---------7-7-7-7-|
----------1-1-1-1-----------------|------------------6-6-6-6---------|
--3-3-3-3-------------------------|----------------------------------|
----------------------------------|----------------------------------|


  W                   W                   S  S S S S S S S S S S S S S S S  
-------------------|-------------------|-----------------------------------|
-------------------|-------------------|-----------------------------------|
-------------------|-------------------|-----------------2-------2-------2-|
-------------------|-------------------|---------7-----2-------2-------2---|
--9----------------|--8----------------|-------7-----3-----0-3-----0-3-----|
--9----------------|--8----------------|--7-10-----7-----------------------|


  S S S S S S S S S S S S S S S S    S S S S S S S S S S S S S S S S  
----------------------------------|----------------------------------|
----------------------------------|----------------------------------|
--------1-------1-------1-------1-|--------2-------2-------2-------2-|
------1-------1-------1-------1---|------2-------2-------2-------2---|
----3-------3-------3-------3-----|--0-3-----0-3-----0-3-----0-3-----|
--6-------6-------6-------6-------|----------------------------------|


  S S S S S S S S S S S S S S S S    S S S S S S S S S S S S S S S S  
----------------------------------|----------------------------------|
----------------------------------|--------1-------1-------1-------1-|
--------1-------1-------1-------1-|------0-------0-------0-------0---|
------1-------1-------1-------1---|----2-------2-------2-------2-----|
----3-------3-------3-------3-----|--3-------3-------3-------3-------|
--6-------6-------6-------6-------|----------------------------------|


  S S S S S S S S S S S S S S S S    S S S S S S S S S S S S S S S S  
----------------------------------|----------------------------------|
--------0-------0-------0-------0-|--------1-------1-------1-------1-|
----------------------------------|------0-------0-------0-------0---|
----1-4-----1-4-----1-4-----1-4---|----2-------2-------2-------2-----|
--2-------2-------2-------2-------|--3-------3-------3-------3-------|
----------------------------------|----------------------------------|


  S S S S S S S S E  Q.        H           H        H         
----------------------------|-----------|--------------------|
--------0-------0-----------|-----------|--------------------|
----------------------------|-----------|--------------------|
----1-4-----1-4---3---------|-----------|--4--------4--------|
--2-------2-------1---------|-----------|--2--------2--------|
----------------------------|-----------|--------------------|


  H        H           H        Q    Q       H        Q    E  E   
--------------------|---------------------|----------------------|
--------------------|---------------------|----------------------|
--------------------|---------------------|----------------------|
--------------------|--4------------------|----------------------|
--5--------4--------|--2------------------|----------------8--7--|
--5--------4--------|-----------6----8----|--1--------L----8--7--|


  H.           Q       H        Q    Q       H        H         
--------------------|---------------------|--------------------|
--------------------|---------------------|--------------------|
--------------------|---------------------|--------------------|
--------------------|-----------5----2----|--4--------4--------|
--5------------4----|--L--------3----0----|--2--------2--------|
--5------------4----|--L------------------|--------------------|


  H        H           H        Q    Q       H        Q    E  E   
--------------------|---------------------|----------------------|
--------------------|---------------------|----------------------|
--------------------|---------------------|----------------------|
--------------------|--4------------------|----------------3--2--|
--5--------4--------|--2-------------1----|----------------1--0--|
--5--------4--------|-----------6---------|--1--------L----------|


                                            |--------3--------|         
  H.           Q       H        H           H        H        H         
--------------------|--------------------|-----------------------------|
--------------------|--------------------|-----------------------------|
--------------------|--------------------|-----------------------------|
--------------------|--------------------|-----------3--------2--------|
--5------------4----|--L--------1--------|--1--------1--------0--------|
--5------------4----|--L--------1--------|--1--------------------------|


  S S S S S S S S S S S S S S S S    S S S S E  S S S S E  S S E   
----------------------------------|-------------------------------|
----------------------------------|-------------------------------|
--2-------------------------------|-------------------------------|
--0-0-0-0-0-0-0-0-4---------------|-------------------------------|
------------------2-2-2-2-2-2-2-2-|--4-4-4-4----4-4-4-4----4-4-4--|
----------------------------------|--4-4-4-4----4-4-4-4----4-4-4--|


  S S S S S S S S S S S S S S S S    S S S S E  S S S S E  S S E   
----------------------------------|-------------------------------|
----------------------------------|-------------------------------|
--2-------------------------------|-------------------------------|
--0-0-0-0-0-0-0-0-4---------------|-------------------------------|
------------------2-2-2-2-2-2-2-2-|--4-4-4-4----4-4-4-4----4-4-4--|
----------------------------------|--4-4-4-4----4-4-4-4----4-4-4--|


  T T T T T T T T T T T T T T T T T T T T T T T T T T T T T T T T  
------------------------------------------------------------------|
------------------------------------------------------------------|
------------------------------------------------------------------|
--0-0-0-0-0-0-0-0-0-0-0-0-0-0-0-0---------------------------------|
----------------------------------2-2-2-2-2-2-2-2-2-2-2-2-2-2-2-2-|
------------------------------------------------------------------|


  T T T T T T T T T T T T T T T T T T T T T T T T T T T T T T T T  
------------------------------------------------------------------|
------------------------------------------------------------------|
------------------------------------------------------------------|
------------------------------------------------------------------|
------------------------------------------------------------------|
--4-4-4-4-4-4-4-4-4-4-4-4-4-4-4-4-4-4-4-4-4-4-4-4-4-4-4-4-4-4-4-4-|


  T T T T T T T T T T T T T T T T T T T T T T T T T T T T T T T T  
------------------------------------------------------------------|
------------------------------------------------------------------|
------------------------------------------------------------------|
--0-0-0-0-0-0-0-0-0-0-0-0-0-0-0-0---------------------------------|
----------------------------------2-2-2-2-2-2-2-2-2-2-2-2-2-2-2-2-|
------------------------------------------------------------------|


  T T T T T T T T T T T T T T T T T T T T T T T T T T T T T T T T  
------------------------------------------------------------------|
------------------------------------------------------------------|
------------------------------------------------------------------|
------------------------------------------------------------------|
------------------------------------------------------------------|
--4-4-4-4-4-4-4-4-4-4-4-4-4-4-4-4-4-4-4-4-4-4-4-4-4-4-4-4-4-4-4-4-|


  S S S S S S S S S S S S S S S S    S S S S S S S S S S S S S S S S  
----------------------------------|----------------------------------|
--------------------------1-1-1-1-|--4-4-4-4-------------------------|
------------------0-0-0-0---------|----------5-5-5-5-----------------|
----------1-1-1-1-----------------|------------------6-6-6-6-5-5-5-5-|
--3-3-3-3-------------------------|----------------------------------|
----------------------------------|----------------------------------|


  S S S S S S S S S S S S S S S S    S S S S S S S S S S S S S S S S  
----------------------------------|----------------------------------|
----------------------------------|----------------------------------|
----------------------------------|----------------------------------|
----------------------------------|----------------------------------|
--2-2-2-2-2-2-2-2-2-2-2-2-2-2-2-2-|----------------------------------|
----------------------------------|--5-5-5-5-5-5-5-5-6-6-6-6-5-5-5-5-|


  S S S S S S S S S S S S S S S S    S S S S S S S S S S S S S S S S  
----------------------------------|----------------------------------|
--------------------------1-1-1-1-|--4-4-4-4-------------------------|
------------------0-0-0-0---------|----------5-5-5-5-----------------|
----------1-1-1-1-----------------|------------------6-6-6-6-5-5-5-5-|
--3-3-3-3-------------------------|----------------------------------|
----------------------------------|----------------------------------|


  W                   W                   S S S S S S S S S S S S S S S S  
-------------------|-------------------|----------------------------------|
-------------------|-------------------|--------------------------1-1-1-1-|
-------------------|-------------------|------------------0-0-0-0---------|
--4----------------|--3----------------|----------1-1-1-1-----------------|
--2----------------|--1----------------|--3-3-3-3-------------------------|
-------------------|-------------------|----------------------------------|


  S S S S S S S S S S S S S S S S    S S S S S S S S S S S S S S S S  
----------------------------------|----------------------------------|
--4-4-4-4-------------------------|----------------------------------|
----------5-5-5-5-----------------|----------------------------------|
------------------6-6-6-6-5-5-5-5-|----------------------------------|
----------------------------------|--2-2-2-2-2-2-2-2-2-2-2-2-2-2-2-2-|
----------------------------------|----------------------------------|


  S S S S S S S S S S S S S S S S    S S S S S S S S S S S S S S S S  
----------------------------------|----------------------------------|
----------------------------------|--------------------------1-1-1-1-|
----------------------------------|------------------0-0-0-0---------|
----------------------------------|----------1-1-1-1-----------------|
----------------------------------|--3-3-3-3-------------------------|
--5-5-5-5-5-5-5-5-6-6-6-6-5-5-5-5-|----------------------------------|


  S S S S S S S S S S S S S S S S    W                 
----------------------------------|-------------------|
--4-4-4-4-------------------------|-------------------|
----------5-5-5-5---------7-7-7-7-|-------------------|
------------------6-6-6-6---------|-------------------|
----------------------------------|--9----------------|
----------------------------------|--9----------------|


  |--------3--------|                                            
  H        H        H           S S S S S S S S S S S S S S S S  
-----------------------------|----------------------------------|
-----------------------------|----------------------------------|
-----------------------------|----------------------------------|
-----------3--------2--------|--7---------------4---------------|
--1--------1--------0--------|--5-5-5-5-5-5-5-5-2-2-2-2-2-2-2-2-|
--1--------------------------|----------------------------------|


  S S S S E  S S S S E  S S E     S S S S S S S S S S S S S S S S  
-------------------------------|----------------------------------|
-------------------------------|----------------------------------|
-------------------------------|--2-------------------------------|
-------------------------------|--0-0-0-0-0-0-0-0-4---------------|
--4-4-4-4----4-4-4-4----4-4-4--|------------------2-2-2-2-2-2-2-2-|
--4-4-4-4----4-4-4-4----4-4-4--|----------------------------------|


  S S S S E  S S S S E  S S E   
-------------------------------|
-------------------------------|
-------------------------------|
-------------------------------|
--4-4-4-4----4-4-4-4----4-4-4--|
--4-4-4-4----4-4-4-4----4-4-4--|


  T T T T T T T T T T T T T T T T T T T T T T T T T T T T T T T T  
------------------------------------------------------------------|
------------------------------------------------------------------|
------------------------------------------------------------------|
--0-0-0-0-0-0-0-0-0-0-0-0-0-0-0-0---------------------------------|
----------------------------------2-2-2-2-2-2-2-2-2-2-2-2-2-2-2-2-|
------------------------------------------------------------------|


  T T T T T T T T T T T T T T T T T T T T T T T T T T T T T T T T  
------------------------------------------------------------------|
------------------------------------------------------------------|
------------------------------------------------------------------|
------------------------------------------------------------------|
------------------------------------------------------------------|
--4-4-4-4-4-4-4-4-4-4-4-4-4-4-4-4-4-4-4-4-4-4-4-4-4-4-4-4-4-4-4-4-|


  T T T T T T T T T T T T T T T T T T T T T T T T T T T T T T T T  
------------------------------------------------------------------|
------------------------------------------------------------------|
------------------------------------------------------------------|
--0-0-0-0-0-0-0-0-0-0-0-0-0-0-0-0---------------------------------|
----------------------------------2-2-2-2-2-2-2-2-2-2-2-2-2-2-2-2-|
------------------------------------------------------------------|


  T T T T T T T T T T T T T T T T T T T T T T T T T T T T T T T T  
------------------------------------------------------------------|
------------------------------------------------------------------|
------------------------------------------------------------------|
------------------------------------------------------------------|
------------------------------------------------------------------|
--4-4-4-4-4-4-4-4-4-4-4-4-4-4-4-4-4-4-4-4-4-4-4-4-4-4-4-4-4-4-4-4-|


  H        Q    Q       H        H           H        Q    Q     
---------------------|--------------------|---------------------|
---------------------|--------------------|---------------------|
---------------------|--2-----------------|---------------------|
---------------------|--0-----------------|--3--------2----3----|
--5--------4----5----|-----------4--------|--1--------0----1----|
--5--------4----5----|-----------4--------|---------------------|


  W                   H        Q    Q       H        H         
-------------------|---------------------|--------------------|
-------------------|---------------------|--------------------|
-------------------|---------------------|--2-----------------|
-------------------|---------------------|--0-----------------|
--4----------------|--5--------4----5----|-----------4--------|
--4----------------|--5--------4----5----|-----------4--------|


  W                   H        H           H        Q    Q     
-------------------|--------------------|---------------------|
-------------------|--------------------|---------------------|
--3----------------|--2-----------------|---------------------|
--1----------------|--0-----------------|--2--------3---------|
-------------------|-----------6--------|--0--------1----3----|
-------------------|-----------6--------|----------------3----|


  S S S S S S S S S S S S S S S S    S S S S S S S S S S S S S S S S  
----------------------------------|----------------------------------|
----------------------------------|----------------------------------|
----------------------------------|----------------------------------|
----------------------------------|----------------------------------|
------1---1-1---1-----1---1-1---1-|------1---1-1---1-----1---1-1---1-|
--5-5-5-5-5-5-5-5-4-4-4-4-4-4-4-4-|--3-3-3-3-3-3-3-3-2-2-2-2-2-2-2-2-|


  T T T T T T T T T T T T T T T T T T T T T T T T T T T T T T T T  
------------------------------------------------------------------|
------------------------------------------------------------------|
------------------------------------------------------------------|
------------------------------------------------------------------|
----------1-------1---1-------1-----------1-------1---1-------1---|
--5-5-5-5-5-5-5-5-5-5-5-5-5-5-5-5-4-4-4-4-4-4-4-4-4-4-4-4-4-4-4-4-|


  T T T T T T T T T T T T T T T T T T T T T T T T T T T T T T T T  
------------------------------------------------------------------|
------------------------------------------------------------------|
------------------------------------------------------------------|
------------------------------------------------------------------|
----------1-------1---1-------1-----------1-------1---1-------1---|
--3-3-3-3-3-3-3-3-3-3-3-3-3-3-3-3-2-2-2-2-2-2-2-2-2-2-2-2-2-2-2-2-|


  T T T T T T T T T T T T T T T T T T T T T T T T T T T T T T T T  
------------------------------------------------------------------|
------------------------------------------------------------------|
------------------------------------------------------------------|
------------------------------------------------------------------|
----------1-------1---1-------1-----------1-------1---1-------1---|
--5-5-5-5-5-5-5-5-5-5-5-5-5-5-5-5-4-4-4-4-4-4-4-4-4-4-4-4-4-4-4-4-|


  T T T T T T T T T T T T T T T T T T T T T T T T T T T T T T T T  
------------------------------------------------------------------|
------------------------------------------------------------------|
------------------------------------------------------------------|
------------------------------------------------------------------|
----------1-------1---1-------1-----------1-------1---1-------1---|
--3-3-3-3-3-3-3-3-3-3-3-3-3-3-3-3-2-2-2-2-2-2-2-2-2-2-2-2-2-2-2-2-|


  T T T T T T T T T T T T T T T T T T T T T T T T T T T T T T T T  
------------------------------------------------------------------|
------------------------------------------------------------------|
------------------------------------------------------------------|
------------------------------------------------------------------|
----------1-------1---1-------1-----------1-------1---1-------1---|
--5-5-5-5-5-5-5-5-5-5-5-5-5-5-5-5-4-4-4-4-4-4-4-4-4-4-4-4-4-4-4-4-|


  T T T T T T T T T T T T T T T T T T T T T T T T T T T T T T T T  
------------------------------------------------------------------|
------------------------------------------------------------------|
------------------------------------------------------------------|
------------------------------------------------------------------|
----------1-------1---1-------1-----------1-------1---1-------1---|
--3-3-3-3-3-3-3-3-3-3-3-3-3-3-3-3-2-2-2-2-2-2-2-2-2-2-2-2-2-2-2-2-|


  H        H           H        H           H        Q    Q     
--------------------|--------------------|---------------------|
--------------------|--------------------|---------------------|
--------------------|--------------------|---------------------|
--4--------4--------|--------------------|--4------------------|
--2--------2--------|--5--------4--------|--2------------------|
--------------------|--5--------4--------|-----------6----8----|


  H        Q    E  E     H.           Q       H        Q    Q     
----------------------|--------------------|---------------------|
----------------------|--------------------|---------------------|
----------------------|--------------------|---------------------|
----------------------|--------------------|-----------5----2----|
----------------8--7--|--5------------4----|--L--------3----0----|
--1--------L----8--7--|--5------------4----|--L------------------|


  H        H           H        H           H        Q    Q     
--------------------|--------------------|---------------------|
--------------------|--------------------|---------------------|
--------------------|--------------------|---------------------|
--4--------4--------|--------------------|--4------------------|
--2--------2--------|--5--------4--------|--2-------------1----|
--------------------|--5--------4--------|-----------6---------|


  H        Q    E  E     H.           Q       H        H         
----------------------|--------------------|--------------------|
----------------------|--------------------|--------------------|
----------------------|--------------------|--------------------|
----------------3--2--|--------------------|--------------------|
----------------1--0--|--5------------4----|--L--------1--------|
--1--------L----------|--5------------4----|--L--------1--------|


  |--------3--------|                                                
  H        H        H             S S S   S  S  S S S S S S S Q      
-----------------------------|--------------------------------------|
-----------------------------|--------------10----------------------|
-----------------------------|--------7S-10----10-7---9-7-----------|
-----------3--------2--------|--4g7-8---------------7-----7---7~----|
--1--------1--------0--------|------------------------------8-------|
--1--------------------------|--------------------------------------|


   Q.      E   E   E   E   E   
------------------------------|
------------------------------|
----------------------11--10--|
--11~-------------11----------|
-----------9--10--------------|
------------------------------|


            |--6--|   |---6---|                   |--6--|  |--6--|  
   Q.       T   T T   T   T   T  T   T  T  E   T  S  S  S  S  S  S  
--------------------------------14p-13-----------17-13-------------|
------------------9h-10h-12s-14--------15-15---L-------15-14-------|
--10~------10h-11--------------------------------------------16-14-|
-------------------------------------------------------------------|
-------------------------------------------------------------------|
-------------------------------------------------------------------|


   |--6--|  |--6--|                          
   S  S  S  S  S  S  T  T T E  T  Q.     E   
--------------------------------------------|
--------------------------------------------|
--13----------------------------------------|
-----16-15-12-11----------------------------|
-----------------14-12-11-9-8--L~-L---------|
--------------------------------------------|


   |--3--|                                           |---6---|   |-----6----|   
   T  T  T  T  T  T  T  T  T  T  T  T  T  T  T T  T  E   E   E   E      E   E   
--13-17-13------------------------------------------------------10--10g12--10--|
-----------15-----------------------------------------------10-----------------|
--------------14-10----------10-------------10-9-10-----10---------------------|
--------------------12----12----12-------12---------12-------------------------|
-----------------------12----------12-13---------------------------------------|
-------------------------------------------------------------------------------|


  Q.      S  S  S  S  S  S  S  S  S  S    S S S S S S S S Q     E  E   
--9~------9-10-13-14-13----13----------|---------------------------4--|
------------------------15----15-14-15-|--------------7-6-6~----7-----|
---------------------------------------|----------7-6-----------------|
---------------------------------------|--7-6-9-7---------------------|
---------------------------------------|------------------------------|
---------------------------------------|------------------------------|


  E  E  E  E  H            S S S S S S S S S S S S S S S S  
--7--5--4---------------|----------------------------------|
-----------6------------|--------------------------1-1-1-1-|
------------------------|------------------0-0-0-0---------|
--------------7~--------|----------1-1-1-1-----------------|
------------------------|--3-3-3-3-------------------------|
------------------------|----------------------------------|


  S S S S S S S S S S S S S S S S    S S S S S S S S S S S S S S S S  
----------------------------------|----------------------------------|
--4-4-4-4-------------------------|----------------------------------|
----------5-5-5-5-----------------|----------------------------------|
------------------6-6-6-6-5-5-5-5-|----------------------------------|
----------------------------------|--2-2-2-2-2-2-2-2-2-2-2-2-2-2-2-2-|
----------------------------------|----------------------------------|


  S S S S S S S S S S S S S S S S    S S S S S S S S S S S S S S S S  
----------------------------------|----------------------------------|
----------------------------------|--------------------------1-1-1-1-|
----------------------------------|------------------0-0-0-0---------|
----------------------------------|----------1-1-1-1-----------------|
----------------------------------|--3-3-3-3-------------------------|
--5-5-5-5-5-5-5-5-6-6-6-6-5-5-5-5-|----------------------------------|


  S S S S S S S S S S S S S S S S    W                   W                 
----------------------------------|-------------------|-------------------|
--4-4-4-4-------------------------|-------------------|-------------------|
----------5-5-5-5-----------------|-------------------|-------------------|
------------------6-6-6-6-5-5-5-5-|--4----------------|--3----------------|
----------------------------------|--2----------------|--1----------------|
----------------------------------|-------------------|-------------------|


  S S S S S S S S S S S S S S S S    S S S S S S S S S S S S S S S S  
----------------------------------|----------------------------------|
--------------------------1-1-1-1-|--4-4-4-4-------------------------|
------------------0-0-0-0---------|----------5-5-5-5-----------------|
----------1-1-1-1-----------------|------------------6-6-6-6-5-5-5-5-|
--3-3-3-3-------------------------|----------------------------------|
----------------------------------|----------------------------------|


  S S S S S S S S S S S S S S S S    S S S S S S S S S S S S S S S S  
----------------------------------|----------------------------------|
----------------------------------|----------------------------------|
----------------------------------|----------------------------------|
----------------------------------|----------------------------------|
--2-2-2-2-2-2-2-2-2-2-2-2-2-2-2-2-|----------------------------------|
----------------------------------|--5-5-5-5-5-5-5-5-6-6-6-6-5-5-5-5-|


  S S S S S S S S S S S S S S S S    S S S S S S S S S S S S S S S S  
----------------------------------|----------------------------------|
--------------------------1-1-1-1-|--4-4-4-4-------------------------|
------------------0-0-0-0---------|----------5-5-5-5---------7-7-7-7-|
----------1-1-1-1-----------------|------------------6-6-6-6---------|
--3-3-3-3-------------------------|----------------------------------|
----------------------------------|----------------------------------|


  W                   W                                                         
-------------------|-------------------|-------------------|-------------------|
-------------------|-------------------|-------------------|-------------------|
-------------------|-------------------|-------------------|-------------------|
-------------------|-------------------|-------------------|-------------------|
--9----------------|--8----------------|-------------------|-------------------|
--9----------------|--8----------------|-------------------|-------------------|


-------------------||
-------------------||
-------------------||
-------------------||
-------------------||
-------------------||




Duration Legend
---------------
W - whole
H - half
Q - quarter
E - 8th
S - 16th
T - 32nd
X - 64th
. - note dotted
|-n-|  - n-tuplets


Tablature Legend
----------------
L - tied note
x - dead note
g - grace note
(n) - ghost note
> - accentuded note
NH - natural harmonic
AH - artificial harmonic
TH - tapped harmonic
SH - semi harmonic
PH - pitch harmonic
h - hammer on
p - pull off
b - bend
br - bendRelease
pb - preBend
pbr - preBendRelease
brb - bendReleaseBend
\n/ - tremolo bar dip
\n - tremolo bar dive
-/n - tremolo bar Release up
/n\ - tremolo bar inverted dip
/n - tremolo bar return
-\n - tremolo bar Release down
S - shift slide
s - legato slide
/ -  slide into from below or out of upwards
\ -  slide into from above or out of downwards
~ - vibrato
W - wide vibrato
tr - trill
TP - tremolo picking
T - tapping
S - slap
P - pop
< - fade in
^ - brush up
v - brush down

            
            
Suggest correction
Creating personal tab
Creating personal tab
You can edit any tab online and save it as your Personal.

You can edit, replace or remove any tab part or add personal notes – all changes will be seen only by you.

Personal tabs can be accessed anytime from any device, even offline.
Learn more »
Give kudos to tab author, rate the tab!
1 2 3 4 5
comments
print report bad tab
3 comments total.
0 reply
Local666Union 81 Jun 29, 2008 11:59 AM

5/5

0 reply
vagoswarlord 10 Nov 07, 2011 09:50 AM

Can you create it at Guitar Pro file??? please!!!!

0 reply
slayer4ever1 10 Jul 23, 2015 01:38 PM

plz tab guitar pro

guest
You may want to rate the tab now too:
select rating
Wanna post a correction for this tab? Suggest correction