Oops, an error
Loading. Please wait.

Unbeliever Tab

815 views 1 this week
no commentswrite comment
1 2 3 4 5
2 more votes to show rating
add to favorites
launch autoscroll
font size
0
reset
how to read this tab
guitar tuner
Autoscroll
slow
fast
+/-
esc
set tempo
stop
Help us to improve Ultimate-Guitar.com Take our survey!
×
Septic Flesh: Unbeliever

I play this song in standard tuning, they might use something lower, but w/e.

The main riff might be wrong but it's really hard to hear.

Intro:  (00:05-00:24) (00:44-01:02) (03:17-03:35---|
---------------------------------------------------|
---------------------------------------------------|
---------------------------------------------------|
4-----4------4-----4----5-------5-----5------5-----|
2-----2------2-----2----3-------3-----3------3-----|
--0-0---0-0---0-0---0-0----1-1----1-1----1-1---1-1-|

Main riff: (00:25-00:43) (01:03-01:21) (03:36-3:55-|
---------------------------------------------------|
---------------------------------------------------|
---------------------------------------------------|
---4“”--4“---4“-------5“”-----5“----5“-7“----------|
-2“---2“---2”---2“--3“----3“-----3“----------------|
---------------------------------------------------|

Breakdown riff: (01:22-01:40)(02:38-03:16)(04:02-|04:21)
-------------------------------------------------|
-------------------------------------------------|
---4---------------------------------------------|
3--4---------------------------------------------|
3--2---------------------------------------------|
1------------------------------------------------|

Breakdown riff 2: (01:41-02:00) (04:22-end)  (All palm muted)
-------------------------------------------------|
-------------------------------------------------|
-------------------------------------------------|
-------------------------------------------------|
-------------------------------------------------|
0---0-0-0---0---0-0-0---0---0-0-0--3-3-3--1-1-1--|


Interlude: (02:01-2:38)
-------------------------------------------------|
-------------------------------------------------|
-------------------------------------------------|
2---2--------------------------------------------|
2---2--------------------------------------------|
0---0---1-1-3------------------------------------|
        * *
Riff after the talking part: (02:39-02:57)
-------------------------------------------------|
-------------------------------------------------|
---------------4--------4---------3--------------|
2--------2-----4--------4---------3--------------|
2--------2-----2---2-2--2---2--2--1--------------|
0--0-0---0-0-0-----------------------------------|
   * *     * *     * *      *  *
Suggest correction
Give kudos to tab author, rate the tab!
1 2 3 4 5
comments
print report bad tab
guest
You may want to rate the tab now too:
select rating
Wanna post a correction for this tab? Suggest correction