Oops, an error
Loading. Please wait.

False Tab

124 views 1 this week
no commentswrite comment
1 2 3 4 5
3 more votes to show rating
add to favorites
launch autoscroll
font size
0
reset
how to read this tab
guitar tuner
Autoscroll
slow
fast
+/-
esc
set tempo
stop
Help us to improve Ultimate-Guitar.com Take our survey!
×
Author
Difficulty
Tuning
intermediate
B E A D F# B
-------------------------------------------------------------------------------
                             FALSE
                            As recorded by Sepultura
                         (From the 2006 Album DANTE XXI)
-------------------------------------------------------------------------------

Words by Andreas Kisser

Music by Igor Cavalera, Derrick Green & Andreas Kisser
Transcribed by BaronLundi

Tuning (Bb Eb Ab Db F Bb)


Q=145
4/4

      E.  S  +E    Q   E   Q   8x       E.  S  +E    Q   E   Q   4x
||-----------------------------||-||-----------------------------||
||o---------------------------o||-||o---------------------------o||
||--/16--16-(16)-/16--16-/16---||-||-----------------------------||
||-----------------------------||-||-----------------------------||
||o-/14--14-(14)-/14--14-/14--o||-||o-/15--15-(15)-/15--15-/15--o||
||-----------------------------||-||--/13--13-(13)-/13--13-/13---||


    S  E  S  E  S  E  +S  S  S  S  E  +S
||-----------------------------------------||-|
||o---------------------------------------o||-|
||-----------------------------------------||-|
||-----------------------------------------||-|
||o---------------------------------------o||-|
||--1p(0)-1p(0)-1p(0)-(0)-1p(0)-1p(0)-(0)--||-|
|
|
|   W
||-----------------------------------------||-|
||o---------------------------------------o||-|
||-----------------------------------------||-|
||-----------------------------------------||-|
||o---------------------------------------o||-|
||-----------------------------------------||-|


     S        E  S  E  S  E  +S  S  S  S  E  +S   4x
||------------------------------------------------||
||o----------------------------------------------o||
||------------------------------------------------||
||------------------------------------------------||
||o----------------------------------------------o||
||---1p======(0)-1p(0)-1p(0)-(0)-1p(0)-1p(0)-(0)--||
|
|    ~~~~~~~~
|    W                                            4x
||--13--------------------------------------------||
||o-17b17.5======================================o||
||------------------------------------------------||
||------------------------------------------------||
||o----------------------------------------------o||
||------------------------------------------------||


      E.  S  +E    Q   E   Q   4x     S  E  S  E  S  E  +S  S  S  S  E  +S   8x
||-----------------------------||-||-----------------------------------------||
||o---------------------------o||-||o---------------------------------------o||
||-----------------------------||-||-----------------------------------------||
||-----------------------------||-||-----------------------------------------||
||o-/15--15-(15)-/15--15-/15--o||-||o---------------------------------------o||
||--/13--13-(13)-/13--13-/13---||-||--1p(0)-1p(0)-1p(0)-(0)-1p(0)-1p(0)-(0)--||



    S S S S S S S S S S S S S S S S   S  E  S  E  S  E  +S  S  S  S  E  +S   4x
||----------------------------------|----------------------------------------||
||o---------------------------------|---------------------------------------o||
||----------------------------------|----------------------------------------||
||----------------------------------|----------------------------------------||
||o---------------------------------|---------------------------------------o||
||--4-4-4-4-4-4-4-4-4-4-4-4-4-4-4-4-|-1p(0)-1p(0)-1p(0)-(0)-1p(0)-1p(0)-(0)--||


    E. S +E  Q  E Q   4x
||--------------------||-|
||o------------------o||-|
||--------------------||-|
||--------------------||-|
||o-6--6-(6)-6--6-6--o||-|
||--4--4-(4)-4--4-4---||-|
|
|   W                 4x
||--------------------||-|
||o------------------o||-|
||--------------------||-|
||--------------------||-|
||o------------------o||-|
||--------------------||-|


     S        E   S   E   S        E  +S   S  S   S        E  +S   4x
||-----------------------------------------------------------------||
||o---------------------------------------------------------------o||
||-----------------------------------------------------------------||
||-----------------------------------------------------------------||
||o---------------------------------------------------------------o||
||---1p======(0)--1p=(0)--1p======(0)-(0)--1p(0)--1p======(0)-(0)--||
|
|    E.           S  +E   Q                E      Q                4x
||---------------13-(13)------------------13-----------------------||
||o-17b17.5==============17b17.5=================17b17.5==========o||
||-----------------------------------------------------------------||
||-----------------------------------------------------------------||
||o---------------------------------------------------------------o||
||-----------------------------------------------------------------||


     S        E  S  E  S  E  +S  S  S  S  E  +S   4x
||------------------------------------------------||
||o----------------------------------------------o||
||------------------------------------------------||
||------------------------------------------------||
||o----------------------------------------------o||
||---1p======(0)-1p(0)-1p(0)-(0)-1p(0)-1p(0)-(0)--||
|
|
|    ~~~~~~~~
|    W                                            4x
||--13--------------------------------------------||
||o-17b17.5======================================o||
||------------------------------------------------||
||------------------------------------------------||
||o----------------------------------------------o||
||------------------------------------------------||


  S  E  S  E  S  E  +S  S  S  S  E  +S    8x
|-----------------------------------------||
|----------------------------------------o||
|-----------------------------------------||
|-----------------------------------------||
|----------------------------------------o||
|-1p(0)-1p(0)-1p(0)-(0)-1p(0)-1p(0)-(0)---||
|
|                                         8x
|-----------------------------------------||
|----------------------------------------o||
|-----------------------------------------||
|-----------------------------------------||
|----------------------------------------o||
|-----------------------------------------||


    S S S S S S S S S S S S S S S S   S  E  S  E  S  E  +S  S  S  S  E  +S   8x
||----------------------------------|----------------------------------------||
||o---------------------------------|---------------------------------------o||
||----------------------------------|----------------------------------------||
||----------------------------------|----------------------------------------||
||o---------------------------------|---------------------------------------o||
||--4-4-4-4-4-4-4-4-4-4-4-4-4-4-4-4-|-1p(0)-1p(0)-1p(0)-(0)-1p(0)-1p(0)-(0)--||


    E. S +E  Q  E Q   4x W            +W      3x
||--------------------||----------||----------||
||o------------------o||----------||o--------o||
||--------------------||----------||----------||
||--------------------||----------||----------||
||o-6--6-(6)-6--6-6--o||-2--------||o-(2)----o||
||--4--4-(4)-4--4-4---||-0--------||--(0)-----||


       PM------|    PM----------------|
     E E E E E E  E E   E E E E E E E E  8x
||--------------------|------------------||
||o-------------------|-----------------o||
||--------------------|------------------||
||--------------------|------------------||
||o-------------------|---6-5-4-5-4-3-2-o||
||--/6-0-0-0-0-0-/6-0-|-0-4-3-2-3-2-1-0--||



           PM---------|      PM---------------------------|
   E       E E   E  E E   E  E     E    E    E  E  E E  E E
|------------------------------|----------------------------|
|------------------------------|----------------------------|
|------------------------------|----------------------------|
|------------------------------|----------------------------|
|------------------------------|----------------------------|
|-/6-------0-0---0--0-0--/6--0-|---0----0----0--0--0-0--0-0-|
|
|
|  Q.            Q.       Q       +E    E    Q     Q    Q
|-15------------16-------16----|-(16)--16---16----15h==16---|
|-19b19.5======(19)-----(19)---|-(19)-(19)-(19)-------------|
|------------------------------|----------------------------|
|------------------------------|----------------------------|
|------------------------------|----------------------------|
|------------------------------|----------------------------|


      PM------------|     PM----------------------------|
   E  E  E  E  E     E  E E     E   E  E  E  E  E  E    E
|---------------------------|------------------------------|
|---------------------------|------------------------------|
|---------------------------|------------------------------|
|---------------------------|------------------------------|
|---------------------------|------------------------------|
|-/6--0--0--0--0-----0-/6-0-|---0---0--0--0--0--0--0----0--|
|
|  E  E  E  E  E  a  E  Q      +E   E  E  E  E  E  Q
|-16-12-12------------------|------------------------------|
|----------15-12-15S17-16---|-(16)-16----------------------|
|---------------------------|---------15-11----------------|
|---------------------------|---------------11----13b14r===|
|---------------------------|------------------10----------|
|---------------------------|------------------------------|



           PM---------|      PM---------------------------|
   E       E E   E  E E   E  E     E    E    E  E  E E  E E
|------------------------------|----------------------------|
|------------------------------|----------------------------|
|------------------------------|----------------------------|
|------------------------------|----------------------------|
|------------------------------|----------------------------|
|-/6-------0-0---0--0-0--/6--0-|---0----0----0--0--0-0--0-0-|
|
|
|  Q.            Q.       Q       +E    E    Q     Q    Q
|-15------------16-------16----|-(16)--16---16----16---16---|
|-19b19.5======(19)-----(19)---|-(19)-(19)-(19)-------------|
|------------------------------|----------------------------|
|------------------------------|----------------------------|
|------------------------------|----------------------------|
|------------------------------|----------------------------|



           PM--------------------------------|             PM-----
   E       E        E       E        E       E       E     E
|----------------------------------------------------------------|
|----------------------------------------------------------------|
|----------------------------------------------------------------|
|----------------------------------------------------------------|
|----------------------------------------------------------------|
|-/6-------0--------0-------0--------0-------0------/6-----0-----|
|
|
|  |------5------|  |------5------|  |-----5------|  |----5----|
|  S  S  S    S  S  S  S  S    S  S  S  S  S    S S  S S S   S S
|-19-16-16---16-13-16-13-13---13-10-13-10-10---10-7-10-7-7---7-4-|
|----------------------------------------------------------------|
|----------------------------------------------------------------|
|----------------------------------------------------------------|
|----------------------------------------------------------------|
|----------------------------------------------------------------|


 -------------------|
  E     E     E     E      H
|-----------------------------------------|
|-----------------------------------------|
|-----------------------------------------|
|-----------------------------------------|
|-------------------------14\-------------|
|-0-----0-----0-----0-----14\-------------|
|
|                                    ~~~
| |----5----| |----5----|  |-3--|
| S S S   S S S S S   S S  S  S S E +Q
|-7-4-4---4-1-4-1-1---1-0--1--3-1-0-(0)---|
|-----------------------------------------|
|-----------------------------------------|
|-----------------------------------------|
|-----------------------------------------|
|-----------------------------------------|


     PM------|    PM----------------|
   E E E E E E  E E   E E E E E E E E
|-------------------|-----------------|
|-------------------|-----------------|
|-------------------|-----------------|
|-------------------|-----------------|
|-------------------|---6-5-4-5-4-3-2-|
|-/6-0-0-0-0-0-/6-0-|-0-4-3-2-3-2-1-0-|
|
|
|  W                  W
|--0----------------|-----------------|
|--0----------------|-----------------|
|-------------------|-----------------|
|-------------------|-----------------|
|-------------------|-----------------|
|-------------------|-----------------|


       PM------|    PM----------------|
     E E E E E E  E E   E E E E E E E E  3x
||--------------------|------------------||
||o-------------------|-----------------o||
||--------------------|------------------||
||--------------------|------------------||
||o-------------------|---6-5-4-5-4-3-2-o||
||--/6-0-0-0-0-0-/6-0-|-0-4-3-2-3-2-1-0--||
|
|    W                  W                3x
||--------------------|------------------||
||o-------------------|-----------------o||
||--------------------|------------------||
||--------------------|------------------||
||o-------------------|-----------------o||
||--------------------|------------------||


     PM------|    PM----------------|
   E E E E E E  E E   E E E E E E E E   +Q   H.
|-------------------|-----------------|------------*|
|-------------------|-----------------|------------*|
|-------------------|-----------------|------------*|
|-------------------|-----------------|------------*|
|-------------------|---6-5-4-5-4-3-3-|-(3)--------*|
|-/6-0-0-0-0-0-/6-0-|-0-4-3-2-3-2-1-1-|-(1)--------*|


Duration Legend
---------------
W - whole; H - half; Q - quarter; E - 8th; S - 16th; T - 32nd; X - 64th; a - acciaccatura
+ - note tied to previous; . - note dotted; .. - note double dotted
Uncapitalized letters represent notes that are staccato (1/2 duration)
Irregular groupings are notated above the duration line
Duration letters will always appear directly above the note/fret number it represents the
duration for.  Duration letters with no fret number below them represent rests.  Multi-
bar rests are notated in the form Wxn, where n is the number of bars to rest for.  Low
melody durations appear below the staff

Tablature Legend
----------------
 h   - hammer-on
 p   - pull-off
 b   - bend
 pb  - pre-bend
 r   - bend release (if no number after the r, then release immediately)
 /\  - slide into or out of (from/to "nowhere")
 s   - legato slide
 S   - shift slide
  - natural harmonic
[n]  - artificial harmonic
n(n) - tapped harmonic
 ~   - vibrato
 tr  - trill
 T   - tap
 TP  - trem. picking
 PM  - palm muting
\n/  - tremolo bar dip; n = amount to dip
 \n  - tremolo bar down
 n/  - tremolo bar up
/n\  - tremolo bar inverted dip
 =   - hold bend; also acts as connecting device for hammers/pulls
 <>  - volume swell (louder/softer)
 x   - on rhythm slash represents muted slash
 o   - on rhythm slash represents single note slash

Misc Legend
-----------
 |  - bar
||  - double bar
||o - repeat start
o|| - repeat end
*|  - double bar (ending)
 :  - bar (freetime)
 $  - Segno
 &  - Coda
Tempo markers -  = BPM(8/16=s8/s16), where s8 = swing 8ths, s16 = swing 16ths
Suggest correction
Give kudos to tab author, rate the tab!
1 2 3 4 5
comments
print report bad tab
guest
You may want to rate the tab now too:
select rating
Wanna post a correction for this tab? Suggest correction