Oops, an error
Loading. Please wait.
We have an official Refuse Resist tab made by UG professional guitarists. Check out the tab »
×
12,188 views 15 this week
4 commentsread comments
1 2 3 4 5
x 6
add to favorites
×
Save as Personal and add changes to this tab that will be seen only by you. Learn more ›
×
You can save this tab as Personal to edit and correct it or add notes. All changes will be seen only by you. Learn more »
launch autoscroll
font size
0
reset
how to read this tab
guitar tuner
edit
Autoscroll
slow
fast
+/-
esc
set tempo
stop
Author
Sepultura 
Refuse resist
Chaos a.d

Tuning D G C F A D

Intro
|-----------------------------|
|-----------------------------|
|-----------------------------|
|------------------x4---------|
|-2-2-2-2-3-------------------|
|-0-0-0-0-1-------------------|
pm..........

Riff 1                     ..this with wah
|------------------------  -------------------------------------------------|
|------------------------  --11-11-11-11---11-11-11-11---11-11--------------|
|------------------------  --------------9--------------9-------9-----------|
|---------------------x8-  ----------------------------------------------x4-|
|------------------------  -------------------------------------------------|
|-66660--66660-660-------  -------------------------------------------------|

Break
|----------------------  -----------------------|
|----------------------  -----------------------|
|-------------------x3-  ----------x1-----------|
|----7-7-7--9--9-------  -----------------------|
|-8--5-5-5--7--7-------  -2--2--2--2------------|
|-6--------------------  -0--0--0--0------------|

|---------------------------------------|
|---------------------------------------|
|---------------------------x8----------|
|---------------------------------------|
|-2-2-2-2-2----3-5-6--------------------|
|-0-0-0-0-0----1-3-4--------------------|
pm.......

Break 2
|---------------------------------------------|
|---------------------------------------------|
|---------------------------------------------|
|---------------------x4-then-----------------|
|---------------------------------------------|
|-66660--66660--660------------66666666-------|
                         pm   ..........

Chorus
|--------------------------------------------------|
|--------------------------------------------------|at
|----------------------------------------------x4--|last time 
|-5-5-5-------------------3-3-3--------------------|dont play
|-3-3-3--666--6--2--------1-1-1--666-6--2----------|last note
|--------444--4--0---------------444-4--0----------|

Riff 2                                Solo backing
|-----------------------------------  --------------------------|
|-----------------------------------  --------------------------|
|-------------------------------x4--  --------------------------|
|-7/6-6---------7/6-6--7/6-6--------  -----------------x4-------|
|-5/4-4--6/5-5--5/4-4--5/4-4--------  --6/5-5---6/5-5-----------|
|--------4/3-3----------------------  --4/3-3---4/3-3-----------|
                                          
                                          0 
Outro: same as intro fourth time play the 2 open....




THIS IS THE RIGHT WAY..................

            
            
Suggest correction
Creating personal tab
Creating personal tab
You can edit any tab online and save it as your Personal.

You can edit, replace or remove any tab part or add personal notes – all changes will be seen only by you.

Personal tabs can be accessed anytime from any device, even offline.
Learn more »
comments
print report bad tab
4 comments total. Showing first comments.
0 reply
chaosx 10 Feb 01, 2007 01:46 PM

Awsome Tab!!! great job

0 reply
icpgettozone 91 Sep 09, 2007 10:18 AM

much agreed. great song for a great tab. 5 stars

0 reply
ironman666 10 Aug 03, 2008 07:02 PM

on the break isn't it
|----------------------
|----------------------
|-------------------x3-
|----7/9--9--9-------
|-8--5/7--7--7-------
|-6--------------------

guest
You may want to rate the tab now too:
select rating
Wanna post a correction for this tab? Suggest correction