Oops, an error
Loading. Please wait.

Territory Tab

version 1
version 1

Whole song

Interactive

68,359 views 63 this week
6 commentsread comments
1 2 3 4 5
x 25
add to favorites
launch autoscroll
font size
0
reset
how to read this tab
guitar tuner
×
Best way to learn
"Territory"
Autoscroll
slow
fast
+/-
esc
set tempo
stop
Tuning
D G C F A D
Tune down to D (low-high : D G C F A d) = (tune down 1 step)


Drums intro

Riff 1                          Riff 2                  
d||----------||                 d||-----||
A||----------||                 A||-----||
F||----------||                 F||-----||
C||--9\8--8--||                 C||--2--||
G||--7\6--6--||                 G||--2--||
D||----------||                 D||--0--||


Riff 3
d||-----------------------------------------------||
A||-----------------------------------------------||
F||-----------------------------------------------||
C||-----------------------------------------------||
G||-----------------------------------------------||
D||-0-0--0-0-000-0--0-0-000-0--0-0-000-0--0-0-000-||
P.M.|--------------------------------------------|


Riff 4 - (Chorus)
d||-------------------0-------------------------||
A||-------------------0-------------------------||
F||---------------------------------------------||
C||----------------2----------------------------||
G||-6-\3-3--6-\3-3-2-------6-\3-3--6-\3-3-/7----||
D||-4-\1-1--4-\1-1-0-------4-\1-1--4-\1-1-/5----||


Riff 5 - (Song Riff)            Riff 6
d||---------||                  d||-------------------------------------------||
A||---------||                  A||-------------------------------------------||
F||---------||                  F||-------------------------------------------||
C||---------||                  C||-------------------------------------------||
G||---------||                  G||-------------------------------------------||
D||-4-1-0-0-||                  D||-0--0000--0-0--0000--0-0--0000--0-0--0000--||
                                P.M.|---------------------------------------|


Riff 7
d||---------------------------------------------||
A||---------------------------------------------||
F||---------------------------------------------||
C||-8-8-----8-8-8---------8-8-----8-8-8---------||
G||-6-6-----6-6-6---------6-6-----6-6-6---------||
D||-----0-0-------0-0-0-0-----0-0-------0-0-0-0-||
P.M.   |---|     |-------|   |---|     |-------|


Riff 8                  Riff 10
d||-----------||        d||--------------------------||
A||-----------||        A||--------------------------||
F||-----------||        F||--------------------------||
C||-----------||        C||--9-6----9-7----9-6----9--||
G||--4--5--8--||        G||--7-4----7-5----7-4----7--||
D||--2--3--6--||        D||--------------------------||


Riff 9
d||------------------------------------------------------------------------------------------------||
A||------------------------------------------------------------------------------------------------||
F||------------------------------------------------------------------------------------------------||
C||-------------------------------------------------------------------------------------8---9--10--||
G||-/3----------/3----------/3----------/3----------/3----------/3----------/3----------6---7---8--||
D||-/1--0--0--0-/1--0--0--0-/1--0--0--0-/1--0--0--0-/1--0--0--0-/1--0--0--0-/1--0--0--0------------||
P.M.   |-------|   |-------|   |-------|   |-------|   |-------|   |-------|   |-------|


Riff 9*
d||----------------||
A||----------------||
F||----------------||
C||----------------||
G||-----------/3---||
D||---0--0--0-/1---||

================================================================================================
Text:

Unknown man
Speaks to the world
Sucking your trust
A trap in every world

War for territory
War for territory

Choice control
Behind propaganda
Poor information
To manage your anger

War for territory
War for territory

Dictators' speech
Blasting off your life
Rule to kill the urge
Dumb assholes' speech

Years of fighting
Teaching my son
To believe in that man
Racist human being
Shame and regret
Of the pride
You've once possessed

War for territory
War for territory

================================================================================================
Song Structure:

Drums intro     (00:00 to 00:07)

Riff 1 x 8      (00:07 to 00:14)

Riff 2 x 1

Riff 3

Riff 2 x 1      (00:28)

Riff 4 x 2      (00:38 to 00:51)

Song Riff:Riff 5 x 16   (00:51 to 1:04)

Chorus:Riff 4 x 2       (1:04 to 1:16)

Riff 6                  (1:16 to 1: 23)

Song Riff:Riff 5 x 16   (1:23 to 1:35)

Chorus:Riff 4 x 2       (1:35 to 1:48)

Riff 2 x 1      (1:49)

Riff 7 x 2      (1:55 to 2:07)

Riff 8 x 4      (2:08 to 2:20)

Riff 7 x 2      (2:20 to 2:32)

Riff 9 x 2      (2:32 to 2:44)

Riff 10 x 2     (2:45 to 2:51)

Riff 9 x 1      (2:51 to 2:57)

Solo            (2:57 to 3:22)

Song Riff:Riff 5 x 16   (3:25 to 3:49)

Chorus:Riff 4 x 2       (3:50 to 4:01)

Riff 2 x 1      (4:02)

Riff 9* x 1     (4:14 to 4:46end)



************************************

| /  Slide up
| \  Slide down

************************************
Suggest correction
comments
print report bad tab
6 comments total. Showing first comments.
0 reply
GnGonzalesjoe 90 Mar 10, 2006 12:41 PM

where's the solo?

0 reply
Malakian=God 30 Apr 04, 2006 08:51 AM

Excellent tab. Would have been good to have a solo. The only mistake i thought was that riff 5 should also be palm muted

0 reply
flamedragon88 50 Jul 13, 2009 03:59 PM

Awesome tab brother! \m/

guest
You may want to rate the tab now too:
select rating
Wanna post a correction for this tab? Suggest correction