Oops, an error
Loading. Please wait.

What I Do Tab

version 1
version 1

Whole song

Interactive

152 views 3 this week
no commentswrite comment
1 2 3 4 5
please rate
add to favorites
launch autoscroll
font size
0
reset
how to read this tab
guitar tuner
Tab Pro tools
  • play this tab
  • loop segment
  • change instrument
  • show fretboard
  • metronome
×
Best way to learn
"What I Do"
Autoscroll
slow
fast
+/-
esc
set tempo
stop
Contributor
Difficulty
Tuning
intermediate
B E A D F# B
                                    WHAT I DO
                            As recorded by Sepultura
                           (From the 2009 Album A-LEX)

Words by Derrick Green & Andreas Kisser
Music by Jean Dolabella, Derrick Green & Andreas Kisser
Arranged by Sepultura
Transcribed by BaronLundi

Tuning (Bb Eb Ab Db F Bb)


Q=180
4/4
Gtr I

    Q  E E E E E E   Q  E E E E E E  6x
||-----------------|-----------------||
||o----------------|----------------o||
||-----------------|-----------------||
||-----------------|-----------------||
||o----------------|----------------o||
||--0--1-0-1-0-1-0-|-0--1-0-1-0-1-0--||


    PM------------|           PM------------|
    S S S S S S S S Q  Q   3x S S S S S S S S E   Q.
||-------------------------||---------------------------|
||o-----------------------o||---------------------------|
||-------------------------||---------------------------|
||-------------------------||---------------------------|
||o-----------------5--5--o||-------------------/22\----|
||--4-4-4-4-4-4-4-4-3--3---||-4-4-4-4-4-4-4-4-3---------|


    Q  E E E E E E   Q  E E E E E E  4x
||-----------------|-----------------||
||o----------------|----------------o||
||-----------------|-----------------||
||-----------------|-----------------||
||o----------------|----------------o||
||--0--1-0-1-0-1-0-|-0--1-0-1-0-1-0--||


    PM------------|         PM------------|
    S S S S S S S S Q  Q    S S S S S S S S Q  Q
||------------------------|-------------------------||
||o-----------------------|------------------------o||
||------------------------|-------------------------||
||------------------------|-------------------------||
||o-----------------5--5--|-----------------5--5---o||
||--4-4-4-4-4-4-4-4-3--3--|-4-4-4-4-4-4-4-4-3--3----||


  Q   E  E  E  E  Q    Q   E  E  E  E  Q
|--------------------|--------------------|
|--------------------|--------------------|
|----13-14-14-16-13--|----14-16-16-17-16--|
|--------------------|--------------------|
|----11-12-12-14-11--|----12-14-14-15-14--|
|-0------------------|-0------------------|


  Q   E  E  E  E  Q     S  S  Q   S  S Q   Q
|--------------------|------------------------|
|--------------------|------------------------|
|----13-14-14-16-13--|-13-14-10--10-14-9--10--|
|--------------------|------------------------|
|----11-12-12-14-11--|-11-12--8---8-12-7---8--|
|-0------------------|------------------------|


  Q   E  E  E  E  Q    Q   E  E  E  E  Q
|--------------------|--------------------|
|--------------------|--------------------|
|----13-14-14-16-13--|----14-16-16-17-16--|
|--------------------|--------------------|
|----11-12-12-14-11--|----12-14-14-15-14--|
|-0------------------|-0------------------|


  E  S  S  Q   S  S  Q   S  S   Q  S  S Q  S S Q
|-----------------------------|-------------------|
|-----------------------------|-------------------|
|---14-16-13--13-14-10--10-13-|-9--9-10-7--7-9-4--|
|-----------------------------|-------------------|
|---12-14-11--11-12--8---8-11-|-7--7--8-5--5-7-2--|
|-0---------------------------|-------------------|

    Q  E E E E E E   Q  E E E E E E  4x
||-----------------|-----------------||
||o----------------|----------------o||
||-----------------|-----------------||
||-----------------|-----------------||
||o----------------|----------------o||
||--0--1-0-1-0-1-0-|-0--1-0-1-0-1-0--||

    PM------------|         PM------------|
    S S S S S S S S Q  Q    S S S S S S S S Q  Q    4x
||------------------------|-------------------------||
||o-----------------------|------------------------o||
||------------------------|-------------------------||
||------------------------|-------------------------||
||o-----------------5--5--|-----------------5--5---o||
||--4-4-4-4-4-4-4-4-3--3--|-4-4-4-4-4-4-4-4-3--3----||

         PM---------|      PM---------|
     Q   E E E E  E E   Q  E E  E E E E
||--------------------|-----------------|
||o-------------------|-----------------|
||--------------------|-----------------|
||--------------------|-----------------|
||o--2---3-2-3-2--3-2-|-2--3-2--3-2-3-2-|
||---0---1-0-1-0--1-0-|-0--1-0--1-0-1-0-|
|
|    E H       E  E E   H       E E Q
||--------------------|-----------------|
||o-------------------|-----------------|
||--10p9-------9-10p9-|-9------10p9-9---|
||--------------------|-----------------|
||o-------------------|-----------------|
||--------------------|-----------------|

      PM--------|        PM--------|
  Q   E E E E E E    Q   E E E E E E
|-----------------|-------------------||
|-----------------|------------------o||
|-----------------|-------------------||
|-----------------|-------------------||
|-2---3-2-3-2-3-2-|--2---3-2-3-2-3-2-o||
|-0---1-0-1-0-1-0-|--0---1-0-1-0-1-0--||
|
| Q.    Q   E Q     +W
|-------4-----4---|-(4)---------------||
|-9---------------|------------------o||
|-7-----5---4-4---|-(4)---------------||
|-----------------|-------------------||
|-----------------|------------------o||
|-----------------|-------------------||


     PM--------------------------------------|
     E  E  E  E E  E  E E     E  E E E E E E E
||------------------------|---------------------||
||o-----------------------|--------------------o||
||------------------------|---------------------||
||------------------------|---------------------||
||o--3--2--3--2-3--2--3-2-|---3--2-3-2-3-2-3-2-o||
||---1--0--1--0-1--0--1-0-|---1--0-1-0-1-0-1-0--||
|
|    E  E  E  Q    E  Q      +W
||--13p12----12---12-12---|-(12)----------------||
||o-------16---------16---|-(16)---------------o||
||------------------------|---------------------||
||------------------------|---------------------||
||o-----------------------|--------------------o||
||------------------------|---------------------||


   PM-----------------------------------------|
   E  E  E  E E  E     E E     E  E E E E E E E
|--------------------------|--------------------|
|--------------------------|--------------------|
|--------------------------|--------------------|
|--------------------------|--------------------|
|--3--2--3--2-3--2-----3-2-|---3--2-3-2-3-2-3-2-|
|--1--0--1--0-1--0-----1-0-|---1--0-1-0-1-0-1-0-|
|
|  E  E  E  Q    E     Q      +W
|-13p12----12---12----12---|-(12)---------------|
|-------16------------16---|-(16)---------------|
|--------------------------|--------------------|
|--------------------------|--------------------|
|--------------------------|--------------------|
|--------------------------|--------------------|
|
|  H          E  S  S  Q      +W
|---------------------16---|-(16)---------------|
|---------------16s17-17---|-(17)---------------|
|--------------------------|--------------------|
|--------------------------|--------------------|
|--------------------------|--------------------|
|--------------------------|--------------------|


   PM-----------------------------------------|
   E  E  E  E E  E     E E     E  E E E E E E E
|--------------------------|--------------------|
|--------------------------|--------------------|
|--------------------------|--------------------|
|--------------------------|--------------------|
|--3--2--3--2-3--2-----3-2-|---3--2-3-2-3-2-3-2-|
|--1--0--1--0-1--0-----1-0-|---1--0-1-0-1-0-1-0-|
|
|  E  E  E  Q    E     Q      +W
|-13p12----12---12----12---|-(12)---------------|
|-------16------------16---|-(16)---------------|
|--------------------------|--------------------|
|--------------------------|--------------------|
|--------------------------|--------------------|
|--------------------------|--------------------|
|
|  H          E  S  S  Q      +W
|---------------------19---|-(19)---------------|
|---------------16s21-21---|-(21)---------------|
|--------------------------|--------------------|
|--------------------------|--------------------|
|--------------------------|--------------------|
|--------------------------|--------------------|

    Q  E E E E E E   Q  E E E E E E  4x
||-----------------|-----------------||
||o----------------|----------------o||
||-----------------|-----------------||
||-----------------|-----------------||
||o----------------|----------------o||
||--0--1-0-1-0-1-0-|-0--1-0-1-0-1-0--||


    PM------------|         PM------------|
    S S S S S S S S Q  Q    S S S S S S S S Q  Q
||------------------------|-------------------------||
||o-----------------------|------------------------o||
||------------------------|-------------------------||
||------------------------|-------------------------||
||o-----------------5--5--|-----------------5--5---o||
||--4-4-4-4-4-4-4-4-3--3--|-4-4-4-4-4-4-4-4-3--3----||


Duration Legend
---------------
W - whole; H - half; Q - quarter; E - 8th; S - 16th; T - 32nd; X - 64th; a - acciaccatura
+ - note tied to previous; . - note dotted; .. - note double dotted
Uncapitalized letters represent notes that are staccato (1/2 duration)
Irregular groupings are notated above the duration line
Duration letters will always appear directly above the note/fret number it represents the
duration for.  Duration letters with no fret number below them represent rests.  Multi-
bar rests are notated in the form Wxn, where n is the number of bars to rest for.  Low
melody durations appear below the staff

Tablature Legend
----------------
 h   - hammer-on
 p   - pull-off
 b   - bend
 pb  - pre-bend
 r   - bend release (if no number after the r, then release immediately)
 /\  - slide into or out of (from/to "nowhere")
 s   - legato slide
 S   - shift slide
  - natural harmonic
[n]  - artificial harmonic
n(n) - tapped harmonic
 ~   - vibrato
 tr  - trill
 T   - tap
 TP  - trem. picking
 PM  - palm muting
\n/  - tremolo bar dip; n = amount to dip
 \n  - tremolo bar down
 n/  - tremolo bar up
/n\  - tremolo bar inverted dip
 =   - hold bend; also acts as connecting device for hammers/pulls
 <>  - volume swell (louder/softer)
 x   - on rhythm slash represents muted slash
 o   - on rhythm slash represents single note slash

Misc Legend
-----------
 |  - bar
||  - double bar
||o - repeat start
o|| - repeat end
*|  - double bar (ending)
 :  - bar (freetime)
 $  - Segno
 &  - Coda
Tempo markers -  = BPM(8/16=s8/s16), where s8 = swing 8ths, s16 = swing 16ths

comments
We did not receive enough feedback on this tab! Please rate:
print report bad tab
1 2 3 4 5
I want to post or [tab]
guest
You may want to rate the tab now too:
select rating
Please do not post tabs as comments. Select "correction" instead!