Oops, an error
Loading. Please wait.

After Sorrow Comes Serenity Tab

100 views 1 this week
no commentswrite comment
1 2 3 4 5
please rate
add to favorites
launch autoscroll
font size
0
reset
how to read this tab
guitar tuner
Autoscroll
slow
fast
+/-
esc
set tempo
stop
Help us to improve Ultimate-Guitar.com Take our survey!
×
Artist: Sequoia
Song: After sorrow comes serenity
Album: The forgotten link
Tabbed by Little Jeff
www.sequoiahxc.com

Here is a good band!!

Intro Guitar 1: Karim

|-----------------------------------------------|
|-----------------------------------------------|
|-----------------------------------------------|
|---2-3-5-3-2-7-8\7-2-3-5-3-2-3-1*1*1*-32-56-8--|
|-----------------------------------------------|
|-0---------------------------------------------|

Guitar 2: Fab
|-12*----------|
|-----12*------|
|---------13*--|
|--------------|
|--------------|
|--------------|

Guitar 1&2: Karim & Fab

|-------------|
|-------------|
|-------------|
|-7777666666--|
|-5555444553--|
|-5555444553--|

Verse guitar 1 & 2 this is the same riff of the intro with two guitars the second guitar 
a little different

|----------------------------------------------------------------|
|----------------------------------------------------------------|
|----------------------------------------------------------------|
|---5-6-8-6-5-10-11/10-5-6-8-6-5-6--------65-86-11---7777666666--|
|----------------------------------------------------5555444553--|
|-3--------------------------------1*1*1*------------5555444553--|

Riff 3

|---------------------------------------------------|
|---------------------------------------------------|
|---------------------------------------------------|
|--------------------------------------77777766677--|
|--------------------------------------55555544465--|
|-11*1*1*1*11*1*1*1*11*1*1*1*11*1*1*1*--------------|

End of the riff

|-------|
|-------|
|-7-6-8-|
|-8-7-9-|
|-------|
|-------|

Guitar 2

|---------------------------------------|
|---------------------------------------|
|---------------------------------------|
|---------------------------------------|
|---------------------------------------|
|-11*1*1*1*11*1*1*1*11*1*1*1*11*1*1*1*--|

Guitar 1

|---------------------------------------------------|
|-7/8-7/8-6/7-6/7/8-66/7/8/7-55/6/7/6-55/6/7/6-5/7--|
|-5/6-5/6-4/5-4/5/6-44/5/6/5-33/4/5/4-33/4/5/4-3/5--|
|---------------------------------------------------|
|---------------------------------------------------|
|---------------------------------------------------|

Guitar 2

|---------------------------------------|
|---------------------------------------|
|---------------------------------------|
|---------------------------------------|
|---------------------------------------|
|-11*1*1*1*11*1*1*1*11*1*1*1*11*1*1*1*--|

Guitar 1

|-------------------------|
|-------------------------|
|-------------------------|
|-------------------------|
|-------------------------|
|-3333333333333333333333--|

Guitar 1

|----------------|
|-6tr/8tr/5tr/6--|
|-4tr/6tr/3tr/4--|
|----------------|
|----------------|
|----------------|

Same riff (verse)
With new riff (guitar 1)

|---------------------------------------------------|
|---------------------------------------------------|
|-7tr/8tr/9tr/10t/11t/9tr/8tr/7tr-6tr/8tr/5tr/6-----|
|-5tr/6tr/7tr/8tr/9tr/7tr/6tr/5tr-4tr/6tr/3tr/4-5~--|
|---------------------------------------------------|
|---------------------------------------------------|

Variation (guitar 1)

|--------------------------------------------------------------|
|--------------------------------------------------------------|
|--------------------------------------------------------------|
|-3-2-3-5-3-2-0-2-3-5-3-2-7-8\7-5-6-8-6-5-10-11/10-5-6-8-6-5-6-|
|--------------------------------------------------------------|
|--------------------------------------------------------------|

Acoustik Riff (i have work just a guitar)

|-2-----2-----0--|
|-0-----0-----2--|
|-0-----0-----3--|
|-0-----0-----2--|
|-2-----3-----0--|
|-3-----2-----0--|

The rest find yourself

Final riff (it's the same of the bridge)

Solo Karim

|----------------------------------------------|
|-0-10-11-10-13-0-10-0-10-11-13-15-13p12p1311--|
|----------------------------------------------|
|----------------------------------------------|
|----------------------------------------------|
|----------------------------------------------|

I'm not sure for this!
Suggest correction
Give kudos to tab author, rate the tab!
1 2 3 4 5
comments
print report bad tab
guest
You may want to rate the tab now too:
select rating
Please do not post tabs as comments. Select "correction" instead!