Oops, an error
Loading. Please wait.

Riky Topo Tab

18 views 3 this week
no commentswrite comment
1 2 3 4 5
3 more votes to show rating
add to favorites
×
Save as Personal and add changes to this tab that will be seen only by you. Learn more ›
×
You can save this tab as Personal to edit and correct it or add notes. All changes will be seen only by you. Learn more »
save as personal
new!
launch autoscroll
font size
0
reset
how to read this tab
guitar tuner
Autoscroll
slow
fast
+/-
esc
set tempo
stop
riky topo de serebrios con ricky espinosa


INTRO: (SOL RE DO RE SOL) x2


Blaaaaaaaaaaaaa

     SOL                  RE
A la casa de ricardo me dirigia yo
     DO    RE        SOL*
y le dije, vamos a tomar
      SOL                     RE
el se puso las fioruchi y sus mechas se peino
          DO               RE         SOL
con la tarjeta que en un kiosco se afano

     SOL          RE       DO       RE   SOL
y su novia, le gritaba, la puta que te pario
      SOL        RE         DO     RE   SOL
no me vuelvas drogado, no borracho otra vez

        SOL                      RE
pero yo se  yo se yo se yo se yo se yo se yo se
         DO    RE   SOL
que ricardito vino bien
        SOL                     RE
pero yo se yo se yo se yo se yo se yo se yo se
         DO   RE      SOL
que ricardito el vino bien


solo de guitarra 1: (SOL RE DO SOL) x2


     SOL                  RE
A la casa de ricardo me dirigia yo
     DO    RE        SOL*
y le dije, vamos a tomar
      SOL                     RE
el se puso las fioruchi y sus mechas se peino
          DO               RE         SOL
con la tarjeta que en un kiosco se afano

     SOL          RE       DO       RE   SOL
y su novia, le gritaba, la puta que te pario
      SOL        RE         DO     RE   SOL
no me vuelvas drogado, no borracho otra vez

        SOL                      RE
pero yo se  yo se yo se yo se yo se yo se yo se
         DO   RE   SOL
que ricardito vino bien
        SOL                     RE
pero yo se yo se yo se yo se yo se yo se yo se
         DO   RE      SOL
que ricardito el vino bien


solo de guitarra 2: (SOL RE DO SOL) x2

blaaaaaaaaa aaaaaa aaaaaaaaaaaaa aaaaaa aaaaaaaaaaaaa
blblblblblb cata cata cata

pq el vino bien? jajaja


En la parte que dice SOL* hace un riff una guitarra que es el siguiente:

---------------------------------------------------------
---------------------------------------------------------
---------------------------------------------------------
---------------------------------------------------------
------2--2--5--5--2--2--------2--2--5-5--2--2------------
3--3--------------------3--3-----------------------------


Solo de guitarra 1:

------------------------------------------3--3--3--3--3--
---------------3--3--3--3--------------------------------
------------4--------------4--5--4--5--4-----------------
5--5--5--5-----------------------------------------------
---------------------------------------------------------
---------------------------------------------------------

---------------------------------------------------------
---------------3--3--3--3--------------------------------
------------4--------------4--5--4--2--4-----------------
5--5--5--5--------------------------------5--------------
---------------------------------------------------------
---------------------------------------------------------

Solo de guitarra 2:

------------------------------------------3--3--3--3--3--
---------------3--3--3--3--------------------------------
------------4--------------4--5--4--5--4-----------------
5--5--5--5-----------------------------------------------
---------------------------------------------------------
---------------------------------------------------------

---------------------------------------------------------
---------------3--3--3--3--------------------------------
------------4--------------4--5--4--2--4--4--------------
5--5--5--5-----------------------------------------------
---------------------------------------------------------
---------------------------------------------------------
Suggest correction
Give kudos to tab author, rate the tab!
1 2 3 4 5
comments
print report bad tab
guest
Wanna post a correction for this tab? Suggest correction