Oops, an error
Loading. Please wait.

What I Wouldnt Do chords

version 2
version 2

Whole song

  • Tab Into added, no capo, minor chord changes, UG standard formatting added.
391 views 12 this week
1 commentread comment
1 2 3 4 5
3 more votes to show rating
add to favorites
×
Save as Personal and add changes to this tab that will be seen only by you. Learn more ›
×
You can save this tab as Personal to edit and correct it or add notes. All changes will be seen only by you. Learn more »
launch autoscroll
font size
0
reset
transpose
0
reset
simplify chords
display chords
guitar tuner
edit
Autoscroll
slow
fast
+/-
esc
set tempo
stop
Author
Difficulty
About this tab version
Tab Into added, no capo, minor chord changes, UG standard formatting added. Was this info helpful? Yes No
Strumming
There is no strumming pattern for this song yet. and get +5 IQ
What I Wouldn’t Do – Serena Ryder
From the Album “Harmony” – 2012

No Capo
---------------------------------------------------------------------------
[Intro] 
e |-------------|-------------|-------------|-------------|
B |-------------|-------------|-------------|-------------|
G |-------------|-------------|-------------|-------------|
D |--4--4--4--4-|--4--4--4--4-|--4--4--4--4-|--4--4--4--4-|
A |-5--5--5--5--|-5--5--5--5--|-5--5--5--5--|-5--5--5--5--|
E |-------------|-------------|-------------|-------------|

[Verse]
   (D)
e |-------------|-------------|-------------|-------------|
B |-------------|-------------|-------------|-------------|
G |--7--6--7--4-|--6----------|--7--6--7--4-|--6----------|
D |-------------|-----7--4--4-|-------------|-----7--7--7-|
A |-------------|-------------|-------------|-------------|
E |-------------|-------------|-------------|-------------|

   (D)                         (G)           (D)
e |-------------|-------------|-------------|-------------|
B |-------------|-------------|-------------|-------------|
G |--7--6--7--4-|--6----------|-------------|-------------|
D |-------------|-----7--4--4-|--5--5--5--5-|--4--4--4----|
A |-------------|-------------|-5--5--5--5--|-5--5--5--5--|
E |-------------|-------------|-------------|-------------|

[Verse 1]
D
If you should fall to pieces, You know I'll pick them up
D                              G                  D
There are so many reasons, I'm never going to get enough
D
If you should leave this country, you know I'll come to you
D
Because you always love me
G                  D    G                  D          
oh what I wouldn't do,  oh what I wouldn't do


[Pre-Chorus]
     Bm        D       G                    D
I'll carry the weight, I'll do anything for you
   Bm        D      G                   D
My bones may break, but I'll never be untrue


[Chorus]
Bm           D
Woah-oh-oh Woah  
Bm           D
Woah-oh-oh Woah  
Bm           D
Woah-oh-oh Woah 
G                  D    
Oh what I wouldn't do
G                  D
Oh what I wouldn't do   


[Verse 2]
D
Your love is like an ocean, that always takes me home
D                           G                  D
Whispering wind is blowing, telling me I'm not alone
D
Your love is like a river, that I am floating down       
D                          G                          D               
I've never been a swimmer, but I know that I'll never drown
G                      D         
I know that I'll never drown


[Pre-Chorus]
    Bm            D         G                         D
The current grows stronger, under different shades of blue
     Bm             D      G                   D
I've fallen in your water, forget everything I knew


[Chorus]
Bm           D
Woah-oh-oh Woah  
Bm           D
Woah-oh-oh Woah  
Bm           D
Woah-oh-oh Woah 
G                  D    
Oh what I wouldn't do
G                  D
Oh what I wouldn't do   


[Bridge]
Em7    D        Bm    D
Oh the things I never noticed
Em7    D       Bm     D
Opened my ears to the chorus
G        D       G      D 
You have made me listen careful
G       D           A
And you gave me the line


[Chorus]
Bm           D
Woah-oh-oh Woah  
Bm           D
Woah-oh-oh Woah  
Bm           D
Woah-oh-oh Woah 
Bm           D
Woah-oh-oh Woah 


[Pre-Chorus]
     Bm        D       G                    D 
I'll carry the weight, I'll do anything for you
   Bm        D      G                 D
My bones may break, but I'll never be untrue
    Bm            D        G                         D
The current grows stronger under different shades of blue
     Bm             D      G                  D
I've fallen in your water, Oh what I wouldn't do


[Outro]
G                  D
Oh what I wouldn't do
G                  D
Oh what I wouldn't do
Suggest correction
Creating personal tab
Creating personal tab
You can edit any tab online and save it as your Personal.

You can edit, replace or remove any tab part or add personal notes – all changes will be seen only by you.

Personal tabs can be accessed anytime from any device, even offline.
Learn more »
Give kudos to tab author, rate the tab!
1 2 3 4 5
comments
print report bad tab
1 comment total.
0 reply
rautakallio 873 Jan 22, 2017 02:48 PM

For a nice touch drop the low E string to D (drop d tuning) and play the syncopated notes on the E (Drop D) string. Then just play with chords as noted above.

guest
You may want to rate the tab now too:
select rating
Wanna post a correction for this tab? Suggest correction