Oops, an error
Loading. Please wait.

Dame Chords

11 views 1 this week
no commentswrite comment
1 2 3 4 5
3 more votes to show rating
add to favorites
launch autoscroll
font size
0
reset
transpose
0
reset
display chords
guitar tuner
Autoscroll
slow
fast
+/-
esc
set tempo
stop
Help us to improve Ultimate-Guitar.com Take our survey!
×
intro;
e-- 7--- 7--- 7----7--------5----5----5----5----------3-----3-----3-----3----
B-5-- 5----5----5--------3----3----3----3----------1-----1-----1-----1-------
G----------------------------------------------------------------------------
D----------------------------------------------------------------------------
A----------------------------------------------------------------------------
E----------------------------------------------------------------------------

G(un rasgeo)

e-----------------------------------
B-----------------------------------
G-----------------------------------
D--0--2--0-----0--------------------
A-----------2-----------------------

G / D / C (2 veces)


G        D             C
Solo ese dia me senti solo 
G        D         C
solo ese dia mi amor
G       D         C
no dormi ni un momento
G        D            C
estar asi es como un buitre 
     D           C              G 
que no tiene mas heridos que comer 
G         D         C
estar aqui es como un perro 
     D            C           G 
que no tiene escapatoria del amor

estar aqui sin tu amor no no,¿porque me dejaste?

no no,¿porque me dejaste?
-CORO---

G       D         C
Dame dame dame tansolo una noche
G       D         C
Dame dame dame tansolo una noche
G       D         C
Dame dame dame tansolo una noche de amor
G       D         C
Dame dame dame tansolo una noche de pasion
G       D         C
Dame tu calor y tu ternura de mujer amor


Esto es terrible sin ti 

ya no puedo mas vivir asi 

estoy loco por ti
la vida no es vida sin ti mi amor

Dame dame dame tansolo una noche

Dame dame dame tansolo una noche

Dame dame dame tansolo una noche de amor

Dame dame dame tansolo una noche de pasion

Dame tu calor y tu ternura de mujer amor
Suggest correction
Give kudos to tab author, rate the tab!
1 2 3 4 5
comments
print report bad tab
guest
You may want to rate the tab now too:
select rating
Wanna post a correction for this tab? Suggest correction