Oops, an error
Loading. Please wait.

Estomago Tab

by Seres
23 views 3 this week
no commentswrite comment
1 2 3 4 5
3 more votes to show rating
add to favorites
launch autoscroll
font size
0
reset
how to read this tab
guitar tuner
×
Best way to learn
"Estomago"
Autoscroll
slow
fast
+/-
esc
set tempo
stop
F
estomago de viceras trabajas de sol a sol
    F#m 
e|-----------------------------------------------------
B|-----------------------------------------------------
G|-----------------------------------------------------
D|------2--4--2---------------2--4-2-------------------
A|----3---------4--2--------3--------4-2---------------
E|-2----------------------2----------------------------
     me obligas
F 
estomago interno suave textura 

F#m
me obligas
F
a pensar a pensaa ah ar a pensar¡!

otra vez un fa semitocando y despues

G,A#,G,C  G,A#,C
     G           A#          G          C 
e|-----------------------------------------------------
B|-----------------------------------------------------
G|-----------------------------------------------------
D|---5-5-5--7--5-7/9-9--7-5-7-5-5-5-7-5-7/10-----------
A|-----------------------------------------------------
E|-----------------------------------------------------
        G             A#        C    
e|-----------------------------------------------------
B|-----------------------------------------------------
G|-----------------------------------------------------
D|---7-5--7-5-5---7-5--7/9--7--9/10--------------------
A|-----------------------------------------------------
E|-----------------------------------------------------
 
   G       A#
  trabajas dia y noche
   G        C                  G
  trabajas todo el tiempo ohh¡!
       A#            C
  trabajas sin descansar 
          (2x)
Suggest correction
Give kudos to tab author, rate the tab!
1 2 3 4 5
comments
print report bad tab
guest
You may want to rate the tab now too:
select rating
Wanna post a correction for this tab? Suggest correction