Oops, an error
Loading. Please wait.

Epic Sax Guy Tab

version 2
version 2

Whole song

Interactive

21,791 views 72 this week
1 commentread comment
1 2 3 4 5
excellent!
x 16
add to favorites
launch autoscroll
font size
0
reset
how to read this tab
guitar tuner
Autoscroll
slow
fast
+/-
esc
set tempo
stop
Help us to improve Ultimate-Guitar.com Take our survey!
×
Author
Difficulty
novice
   _______________________
  /                      /
 /  Epic Sax Guy theme  /
/______________________/

Here is the original clip from the Eurovision Song Contest 2010:
 www.youtube.com/watch?v=9-seDrv1eQo
Epic Sax Guy plays this for 1½ min @ 0:42 - 2:10... Amazing!

Remember: "Annoying is a verb." - go spread the word!


  +       +       +       +         +       +       +       +
 Dm                                Bb
|-5---------------5---5-5-3-5-----|-5---------------5---5-5-3-5-----|
|---------------------------------|---------------------------------|
|---------------------------------|---------------------------------|
|---------------------------------|---------------------------------|
|---------------------------------|---------------------------------|
|---------------------------------|---------------------------------|

 F                                 Am
|-5-----------6/8-----5-------3---|---------------------------------|
|---------------------------------|-----6-------3---3---5---6---3---|
|---------------------------------|---------------------------------|
|---------------------------------|---------------------------------|
|---------------------------------|---------------------------------|
|---------------------------------|---------------------------------|



------------------------------------------------------------------------------
 30th /April /2010
 Just mail me at Maitinin@gmail.com with questions, comments and corrections!
------------------------------------------------------------------------------



 " Maitinin writing here - the author of this tab.

   The past 11 years, I have generated 10,318,000 views and 815 top-rated tabs for this site.
   If you want to support an eager contributor like me, check out my own site:


   _____   PlayLiketheGreats.com   _____


   Here I will continue to upload and improve my transcriptions.

   Best regards,
   Maitinin "
Suggest correction
comments
print report bad tab
1 comment total.
0 reply
AlterCreed95 128 wrote on May 14 2016, 12:43 pm

I think it sounds something like this:

|-6---------------6---6-6-4-6-----|-6---------------6---6-6-4-6-----|
|---------------------------------|---------------------------------|
|---------------------------------|---------------------------------|
|---------------------------------|---------------------------------|
|---------------------------------|---------------------------------|
|---------------------------------|---------------------------------|

|-6---------------7/9-6-----------|-----------6---------------------|
|-------------------------9-7-----|-4-4-4-7-4-----------------------|
|---------------------------------|---------------------------------|
|---------------------------------|---------------------------------|
|---------------------------------|---------------------------------|
|---------------------------------|---------------------------------|

guest
You may want to rate the tab now too:
select rating
Please do not post tabs as comments. Select "correction" instead!