Oops, an error
Loading. Please wait.

Cuando Me Dices Que No Chords

20 views 1 this week
no commentswrite comment
1 2 3 4 5
3 more votes to show rating
add to favorites
launch autoscroll
font size
0
reset
transpose
0
reset
display chords
guitar tuner
Autoscroll
slow
fast
+/-
esc
set tempo
stop
Help us to improve Ultimate-Guitar.com Take our survey!
×
La venganza de Moctezuma [1993?]

Comentarios:
Esta rola es bella bella, muy chingona la escuché la
primer vez en el Gimnasio de Ciencias Químicas de la
UANL, cuando estuvo Arau y los mismísimos angeles en 1990
en la inaguración de dicho recinto deportivo, la anunció com
"si ustedes la apoyan aparecerá en los nuevos libros de texto
gratuitos..." que mas podía pedir mi heroe de Botella en
Monterrey y yo tenia 19 años.

Colaboré anteriormente con el correo de
salvadoraparicio@ pero la cuenta ya no existe

INTRO: FIG.1 + FIG.2 + FIG.3

Verso 1
A       E        F#m            D E A
Amor quisiera, robarte el corazón
A       E        F#m            D E A
Por mi hacerte enloquecer
A       E        F#m            D E A
Arrancar con ardor cada parte de tu ser
A            E            F#m    D E
Estrechar tu cuerpo con pasión


Coro

D       A  FIG.4
Desarmarte,
D       A  FIG.4
descuartizarte,
D         A
despedazarte
          Bm             E
Para que sientas lo que yo
Pausa                   A
Cuando me dices que no

REQUINTO? ACOPAÑADO EN (A E F#m D E A)

Verso 2
(Igual Verso 1)

Echarte limón en las heridas

Darte uno que otro electroshock

Un poco de sal en cada yaga

Que me recuerdes con horror


Coro
Desarmarte, descuartizarte, despedazarte

Para que sientas lo que yo

Cuando me dices que no

Cuando me dices que nooo


FIG.1
E-------------------------------------------------
B-------------------------------------------------
G------------------2--2~~--4s6--4~~--6--4--2------
D---2--2--2--2--4-----------------------------4---
A-------------------------------------------------
E-------------------------------------------------

FIG.2
E-----------------------------------------------
B--------------------------------------------5--
G---------2--2---------2--2---------2--4--6-----
D---2--4---------2--4---------2--4--------------
A-----------------------------------------------
E-----------------------------------------------

FIG.3
E---------------------5----------------------
B--------5--7--5---------7-5-----------------
G---5s6-----------5s6---------7-6-4-6-4-2----
D--------------------------------------------
A--------------------------------------------
E--------------------------------------------

FIG.4
E----------------------
B----------------------
G----------------------
D----------2-----0-----
A----2--4-----4--------
E----------------------

Saludos desde Monterrey
Chava Flowers
Los Urbanoides

Que la disfruten
Suggest correction
Give kudos to tab author, rate the tab!
1 2 3 4 5
comments
print report bad tab
guest
You may want to rate the tab now too:
select rating
Wanna post a correction for this tab? Suggest correction