Oops, an error
Loading. Please wait.

Me Recuerda A Ella Tab

32 views 3 this week
no commentswrite comment
1 2 3 4 5
3 more votes to show rating
add to favorites
×
Save as Personal and add changes to this tab that will be seen only by you. Learn more ›
×
You can save this tab as Personal to edit and correct it or add notes. All changes will be seen only by you. Learn more »
save as personal
new!
launch autoscroll
font size
0
reset
how to read this tab
guitar tuner
Autoscroll
slow
fast
+/-
esc
set tempo
stop
Bueno aqui os dejo esta cancion, ya opinais ustedes, mas de un fallo
tendra, pero pa ser una de mis primeras espero que este medio bien y
perdonar por repetir tanto en vez de verla abreviado un poco! jajaja

E-|-------------------------------|--------------------------------|
B-|-------3-----------------------|-------3--------3---------------|
G-|-----4---4---------------------|-----4--------4---4-------------|
D-|---4-------4-------------------|---4--------4-------4-----------|
A-|-2-----------------------------|-0------------------------------|
E-|-------------------------------|----------3---------------------|

E-|-------------------------------|-----------------------0--------|
B-|-------3-----------------------|-------3--------3---------------|
G-|-----4---4---------------------|-----4--------4---4-------------|
D-|---4-------4-------------------|---4--------4-------4-----------|
A-|-2-----------------------------|-0------------------------------|
E-|-------------------------------|----------3---------------------|

   Tus ojos son dos luces al alba,  las que alumbran mi caminar,
E-|-------------------------------|--------------------------------|
B-|-------3-----------------------|-------3--------3---------------|
G-|-----4---4---------------------|-----4--------4---4-------------|
D-|---4-------4-------------------|---4--------4-------4-----------|
A-|-2-----------------------------|-0------------------------------|
E-|-------------------------------|----------3---------------------|

   Tus besos son mi veneno, que cada día bebo y es que por ti muero.
E-|-------------------------------|-----------------------0--------|
B-|-------3-----------------------|-------3--------3---------------|
G-|-----4---4---------------------|-----4--------4---4-------------|
D-|---4-------4-------------------|---4--------4-------4-----------|
A-|-2-----------------------------|-0------------------------------|
E-|-------------------------------|----------3---------------------|

  Me han dicho que eras diferente, que estás medio loco, loco de atar,
E-|-------------------------------|--------------------------------|
B-|-------3-----------------------|-------3--------3---------------|
G-|-----4---4---------------------|-----4--------4---4-------------|
D-|---4-------4-------------------|---4--------4-------4-----------|
A-|-2-----------------------------|-0------------------------------|
E-|-------------------------------|----------3---------------------|

Tus palabras no pueden ser mas sabias, llevo tu sangre, no pares de amar.
E-|-------------------------------|-----------------------0--------|
B-|-------3-----------------------|-------3--------3---------------|
G-|-----4---4---------------------|-----4--------4---4-------------|
D-|---4-------4-------------------|---4--------4-------4-----------|
A-|-2-----------------------------|-0------------------------------|
E-|-------------------------------|----------3---------------------|

   Tu vida una enciclopedia         sobre un mundo que no vi,
E-|-------------------------------|--------------------------------|
B-|-------3--------3--------------|-------------------3------------|
G-|-----4--------4----------------|-----4-----4-----4---4----------|
D-|---4--------4------------------|---4-----4-----4-------4--------|
A-|-2--------0--------------------|--------------------------------|
E-|-------------------------------|-3-----2-----0------------------|

   Una imagen flamenca, gitana     que borra el amanecer gris.
E-|-------------------------------|-----------------------0--------|
B-|-------3--------3--------------|-------------------3------------|
G-|-----4--------4----------------|-----4-----4-----4---4----------|
D-|---4--------4------------------|---4-----4-----4----------------|
A-|-2--------0--------------------|--------------------------------|
E-|-------------------------------|-3-----2-----0------------------|

   Tus manos son palomas al aire   cuando un toque hay que escuchar,
E-|-------------------------------|--------------------------------|
B-|-------3--------3--------------|-------------------3------------|
G-|-----4--------4----------------|-----4-----4-----4---4----------|
D-|---4--------4------------------|---4-----4-----4-------4--------|
A-|-2--------0--------------------|--------------------------------|
E-|-------------------------------|-3-----2-----0------------------|

   Esa guitarra cansada y herida   que en la calle de la judería
E-|-------------------------------|-----------------------0--------|
B-|-------3--------3--------------|-------------------3------------|
G-|-----4--------4----------------|-----4-----4-----4---4----------|
D-|---4--------4------------------|---4-----4-----4----------------|
A-|-2--------0--------------------|--------------------------------|
E-|-------------------------------|-3-----2-----0------------------|

   Se pierden de madrugá.
E-|----------------0--------------|
B-|--------3-----3----------------|
G-|------4---4--------------------|
D-|----4-------4------------------|
A-|-------------------------------|
E-|--2----------------------------|


[*]Estribillo[*] x2

  Te llena de esencia en tu silla de neja,
E-|--2----------------------------|
B-|--3----------------------------|
G-|--4----------------------------|
D-|--4----------------------------|
A-|--2----------------------------|
E-|--0----------------------------|

   la guitarra en tu pecho acariciarla quisiera,
E-|--2--2-------------------------|
B-|--3--3-------------------------|
G-|--4--4-------------------------|
D-|--4--4-------------------------|
A-|--0--0-------------------------|
E-|--0--3-------------------------|

   siento que se parte el alma
E-|--0---------------------------|
B-|--7---------------------------|
G-|--7---------------------------|
D-|--5---------------------------|
A-|--7---------------------------|
E-|--0---------------------------|

   cuando llega el alba y estoy a tu vera.
E-|--3--------------------0------|
B-|--3--------------------0------|
G-|--4--------------------0------|
D-|--5--------------------4------|
A-|--5--------------------4------|
E-|--3--------------------2------|


¿Qué hago si to lo que vivo me recuerda a ti, si to lo que hago
 me recuerda a ti?
E-|-------------------------------|--------------------------------|
B-|-------3-----------------------|-------3--------3---------------|
G-|-----4---4---------------------|-----4--------4---4-------------|
D-|---4-------4-------------------|---4--------4-------4-----------|
A-|-2-----------------------------|-0------------------------------|
E-|-------------------------------|----------3---------------------|

Si esas calles que de tu mano yo recorrí ahora gritan en tu ausencia,
te echo de menos princesa.
E-|-------------------------------|-----------------------0--------|
B-|-------3-----------------------|-------3--------3---------------|
G-|-----4---4---------------------|-----4--------4---4-------------|
D-|---4-------4-------------------|---4--------4-------4-----------|
A-|-2-----------------------------|-0------------------------------|
E-|-------------------------------|----------3---------------------|

  No tengo mucho mas pa entregarte, mi ilusión, mi ternura, mis momentos,
E-|-------------------------------|--------------------------------|
B-|-------3-----------------------|-------3--------3---------------|
G-|-----4---4---------------------|-----4--------4---4-------------|
D-|---4-------4-------------------|---4--------4-------4-----------|
A-|-2-----------------------------|-0------------------------------|
E-|-------------------------------|----------3---------------------|

   No tengo mucho mas que decirte, que te espero, que te quiero.
E-|-------------------------------|-----------------------0--------|
B-|-------3-----------------------|-------3--------3---------------|
G-|-----4---4---------------------|-----4--------4---4-------------|
D-|---4-------4-------------------|---4--------4-------4-----------|
A-|-2-----------------------------|-0------------------------------|
E-|-------------------------------|----------3---------------------|

  ¿Cuántas veces preparé un discurso perfecto? Tratando de mentir y
   evadir así mis sentimientos
E-|-------------------------------|--------------------------------|
B-|-------3-----------------------|-------3--------3---------------|
G-|-----4---4---------------------|-----4--------4---4-------------|
D-|---4-------4-------------------|---4--------4-------4-----------|
A-|-2-----------------------------|-0------------------------------|
E-|-------------------------------|----------3---------------------|

   Que hoy cuelgan el cartel de aforo completo porque de ti estoy lleno.
E-|-------------------------------|-----------------------0--------|
B-|-------3-----------------------|-------3--------3---------------|
G-|-----4---4---------------------|-----4--------4---4-------------|
D-|---4-------4-------------------|---4--------4-------4-----------|
A-|-2-----------------------------|-0------------------------------|
E-|-------------------------------|----------3---------------------|

   Las calles de Córdoba se abren pa ti, esta canción vuela directa a ti,
E-|-------------------------------|--------------------------------|
B-|-------3-----------------------|-------3--------3---------------|
G-|-----4---4---------------------|-----4--------4---4-------------|
D-|---4-------4-------------------|---4--------4-------4-----------|
A-|-2-----------------------------|-0------------------------------|
E-|-------------------------------|----------3---------------------|

   Me sale de dentro al verlo a él sufrir, vamo a decirlo Felipe,
   a ver si empieza asi.
E-|-------------------------------|-----------------------0--------|
B-|-------3-----------------------|-------3--------3---------------|
G-|-----4---4---------------------|-----4--------4---4-------------|
D-|---4-------4-------------------|---4--------4-------4-----------|
A-|-2-----------------------------|-0------------------------------|
E-|-------------------------------|----------3---------------------|

   Tus manos son palomas al aire   Cuando un toque hay que escuchar,
E-|-------------------------------|--------------------------------|
B-|-------3--------3--------------|-------------------3------------|
G-|-----4--------4----------------|-----4-----4-----4---4----------|
D-|---4--------4------------------|---4-----4-----4-------4--------|
A-|-2--------0--------------------|--------------------------------|
E-|-------------------------------|-3-----2-----0------------------|

   Esa guitarra cansada y herida    que en la calle de la judería
E-|-------------------------------|-----------------------0--------|
B-|-------3--------3--------------|-------------------3------------|
G-|-----4--------4----------------|-----4-----4-----4---4----------|
D-|---4--------4------------------|---4-----4-----4----------------|
A-|-2--------0--------------------|--------------------------------|
E-|-------------------------------|-3-----2-----0------------------|

   Se pierden de madrugá.
E-|----------------0--------------|
B-|--------3-----3----------------|
G-|------4---4--------------------|
D-|----4-------4------------------|
A-|-------------------------------|
E-|--2----------------------------|


[*]Estribillo[*] x2

  Te llena de esencia en tu silla de neja,
E-|--2----------------------------|
B-|--3----------------------------|
G-|--4----------------------------|
D-|--4----------------------------|
A-|--2----------------------------|
E-|--0----------------------------|

   la guitarra en tu pecho acariciarla quisiera,
E-|--2--2-------------------------|
B-|--3--3-------------------------|
G-|--4--4-------------------------|
D-|--4--4-------------------------|
A-|--0--0-------------------------|
E-|--0--3-------------------------|

   siento que se parte el alma
E-|--0---------------------------|
B-|--7---------------------------|
G-|--7---------------------------|
D-|--5---------------------------|
A-|--7---------------------------|
E-|--0---------------------------|

   cuando llega el alba y estoy a tu vera.
E-|--3--------------------0------|
B-|--3--------------------0------|
G-|--4--------------------0------|
D-|--5--------------------4------|
A-|--5--------------------4------|
E-|--3--------------------2------|


*Se la dedico a mi niña, Te quiero!*

Drasoad@
Suggest correction
Give kudos to tab author, rate the tab!
1 2 3 4 5
comments
print report bad tab
guest
Wanna post a correction for this tab? Suggest correction