Oops, an error
Loading. Please wait.

Los Sonidos Del Silencio Tab

version 1
version 1

Whole song

106 views 1 this week
no commentswrite comment
1 2 3 4 5
3 more votes to show rating
add to favorites
launch autoscroll
font size
0
reset
how to read this tab
guitar tuner
Autoscroll
slow
fast
+/-
esc
set tempo
stop
HOLA amigos espero q esto les xirva MUCHIXIMOOO.....


1----------------------------------------------------------
2----------2-2-0---------------------------1-1---3--3-1----
3-0-0--3-3-----------------0-0---------2-2-----------------
4----------------------2-2-----3--- 3-3--------------------
5------------------3-3-------------------------------------
6----------------------------------------------------------


1-----------------------------------------0-1-1--1-0------
2----------1-1---3--3-1---------1-1-1---1------------3-1--
3------2-2------------------------------------------------
4--3-3----------------------3-3---------------------------
5---------------------------------------------------------
6---------------------------------------------------------


1--------------------------------------------------------
2--0-3-1------------1------------------------------------
3--------2-----------------------------------------------
4-------------3-3-3----2-3-0-----------------------------
5--------------------------------------------------------
6--------------------------------------------------------


..................................ENS.............................
DEDICADO A MI HERMANOTA HERMOXA
                                  EMA
Suggest correction
Give kudos to tab author, rate the tab!
1 2 3 4 5
comments
print report bad tab
guest
Wanna post a correction for this tab? Suggest correction