Oops, an error
Loading. Please wait.

Los Sonidos Del Silencio Tab

version 2
version 2

Whole song

432 views 3 this week
no commentswrite comment
1 2 3 4 5
3 more votes to show rating
add to favorites
launch autoscroll
font size
0
reset
how to read this tab
guitar tuner
×
Best way to learn
"Los Sonidos Del Silencio"
Autoscroll
slow
fast
+/-
esc
set tempo
stop
Hola!

Esta es la primer tab que hago,
soy algo nuevo de esta comunidad de la 
espero le guste.
GRACIAS!!
Dudas, comentarios o recomendaciones a este correo: jean10paul_@


e)---------0-0-------------------------0-0-3-3-5--5-3------0-0-3-3-5--5-3-
B)-----1-1-----3-------0-0-3-3-1---1-1-----------------1-1----------------
G)-2-2-------------0-0----------------------------------------------------
D)------------------------------------------------------------------------
A)------------------------------------------------------------------------
E)------------------------------------------------------------------------

e)-----5-5--5-7-8-8--7-5-3--3-5-3-0--------3-------------
B)-1-1-------------------------------1-1-1----0--1-------
G)--------------------------------------------------2----(x2)
D)-------------------------------------------------------
A)-------------------------------------------------------
E)-------------------------------------------------------


Ahora le agregamos los bajos.

e)---------------------------------------------------
B)---------------------------------------------------
G)----------------------------------------0-0-2--2-0-
D)---------2-2-0----------0-0---------2-2------------
A)-0-0-3-3------------2-2-----3---3-3----------------
E)----------------3-3--------------------------------

e)-------------------------------------------------------------------------
B)--------------------------------0-1-1--0---------------------------------
G)---------0-0-2--2-0------2-2--2----------2-0--0-2-0-----------0----------(x2)
D)-----2-2--------------------------------------------2--------------------
A)-3-3-----------------3-3--------------------------------3-3-3----2--3--0-
E)-------------------------------------------------------------------------


Vuelve la primer parte.

e)---------0-0-------------------------0-0-3-3-5--5-3------0-0-3-3-5--5-3-
B)-----1-1-----3-------0-0-3-3-1---1-1-----------------1-1----------------
G)-2-2-------------0-0----------------------------------------------------
D)------------------------------------------------------------------------
A)------------------------------------------------------------------------
E)------------------------------------------------------------------------

e)-----5-5--5-7-8-8--7-5-3--3-5-3-0--------3-------------
B)-1-1-------------------------------1-1-1----0--1-------
G)--------------------------------------------------2----
D)-------------------------------------------------------
A)-------------------------------------------------------
E)-------------------------------------------------------
Suggest correction
Give kudos to tab author, rate the tab!
1 2 3 4 5
comments
print report bad tab
guest
You may want to rate the tab now too:
select rating
Wanna post a correction for this tab? Suggest correction