Oops, an error
Loading. Please wait.

Te Quiero Tanto Tab

38 views 3 this week
no commentswrite comment
1 2 3 4 5
3 more votes to show rating
add to favorites
launch autoscroll
font size
0
reset
how to read this tab
guitar tuner
Autoscroll
slow
fast
+/-
esc
set tempo
stop
Help us to improve Ultimate-Guitar.com Take our survey!
×
Este es el estribillo de la cancion:

1/-----------------/
2/--3-3-3-2-5-3----/
3/-----------------/
4/-----------------/
5/-----------------/
6/-----------------/

1/----------------------/
2/0-7-7-7-5-3-3-3-2-5-3-/
3/----------------------/
4/----------------------/
5/----------------------/
6/----------------------/

1/-----------------------/
2/--0-3-3-5-7-5-5-5-3-7-5/
3/-----------------------/
4/-----------------------/
5/-----------------------/
6/-----------------------/


1/--------------------------------/
2/--3-5-5-5-3-5-5-5-3-7-5-5-3-7-5-/
3/--------------------------------/
4/--------------------------------/
5/--------------------------------/
6/--------------------------------/

juansee..
Suggest correction
Give kudos to tab author, rate the tab!
1 2 3 4 5
comments
print report bad tab
guest
You may want to rate the tab now too:
select rating
Wanna post a correction for this tab? Suggest correction