Oops, an error
Loading. Please wait.

Back Home Someday A Man Alone Theme From Massacre Time Chords

16 views 3 this week
no commentswrite comment
1 2 3 4 5
2 more votes to show rating
add to favorites
launch autoscroll
font size
0
reset
transpose
0
reset
simplify chords
display chords
guitar tuner
Autoscroll
slow
fast
+/-
esc
set tempo
stop
Help us to improve Ultimate-Guitar.com Take our survey!
×
Author
Difficulty
intermediate
"Back Home Someday (A Man Alone)"
Theme from MASSACRE TIME / TEMPO DI MASSACRO
Music by Lallo Gori
Vocals by Sergio Endrigo

[Verse 1]
                          Em (Trumpet Fill)
You left to find a pot of gold. 
Em                         G          B7
A thousand miles you rode alone, all alone! 
        Em              C            G           B7
Oh, the long and lonely way will not lead you anywhere... 
       Em        Am        Em    B7 (Trumpet Fill)
You'll come back home some day; 
       Em        Am        Em    B7   Em  B7  Em (Trumpet Fill)
You'll come back home some day. 


[Verse 2]

N.C.                             Em    (Trumpet Fill)
The wind will steal your 'pot of gold' 
Em                              G            B7
And fill your eyes with burning sand, bitter sand! 
   Em                 C          G                  B7
No star will show the way and no one will hear your prayer... 
       Em        Am        Em    B7   (Trumpet Fill)
You'll come back home some day; 
       Em        Am        Em    B7   Em  B7 (Trumpet Fill)
You'll come back home some day.


[Bridge] 
(strum chords and let ring)
(with Harmony Melody 1)

    D         Em
You went away forever; 
    D         Em
You went away alone. 
    D                Em
But someone's always waiting 
   D          D         Em
For you... at home... today!


[Solo]
(Key change - up one step)


    Fm                Fm                 G#     C7
e|-----------------------------------------------------|
B|------------------------------------4---4---4-5------|
G|--------------3-------------------5---5---5----------|
D|--------3-5-6---5---3-------3-5-6--------------------|
A|------3-----------6-------3--------------------------|
E|--(1)------------------------------------------------|

[Repeat verse 2]

   Fm                 C#         G#                  C7
No star will show the way and no one will hear your prayer... 
       Fm        Bbm       Fm    C7
You'll come back home some day; 
       Fm        Bbm       Fm    G#   Fm G# Fm
You'll come back home some day.


[Bridge] 
(strum chords and let ring)
(with Harmonica Melody 2)

    D#        Fm
You went away forever; 
    D#        Fm
You went away alone. 
    D#               Fm
But someone's always waiting 
    D#         D#        Fm
For you... at home... today!

Fm - G# - Fm - G# (fade)


Trumpet Fill 1:

e|---0-2-3p2p0---2-0---------|
B|-0-----------3-----0---0---|
G|---------------------2-----|
D|---------------------------|
A|---------------------------|
E|---------------------------|

Harmonica Melody 1:
e|-------------------------------------------------------------------------------------------|
B|-------------------------------------------------------------------------------------------|
G|----------9-7-9---------------------------9-7-9----------------------9-7-9-----------------|
D|--7~----9----------7~-------9-----7~----9----------7------7--9-7~----------9-7-9-----------|
A|------7---------10-----7-10---7-------7---------10----9-10---------7-------------7----7----|
E|-----------------------------------------------------------------------------------10------|


Harmonica Melody 2:
e|------------------------------------------------------------------------------|
B|------------------------------------------------------------------------------|
G|-----------10-8-10----------------------------10-8-10-------------------------|
D|--8~----10------------8~-------10-----8~----8------------8--------8-10-8~-----|
A|------8------------11-----8-11----8-------8-----------11----10-11-------------|
E|------------------------------------------------------------------------------|


************************************

| (n)  Ghost note
| p    Pull-off
| ~    Vibrato

************************************
Suggest correction
Give kudos to tab author, rate the tab!
1 2 3 4 5
comments
print report bad tab
guest
You may want to rate the tab now too:
select rating
Wanna post a correction for this tab? Suggest correction