Oops, an error
Loading. Please wait.

De Cara Al Lodo Tab

162 views 3 this week
no commentswrite comment
1 2 3 4 5
3 more votes to show rating
add to favorites
launch autoscroll
font size
0
reset
how to read this tab
guitar tuner
×
Best way to learn
"De Cara Al Lodo"
Autoscroll
slow
fast
+/-
esc
set tempo
stop
Hola a todos!!!

Aquí les dejo la canción De Cara Al Lodo completita!!!
Esta es la versión original de la canción... Ya que hay una versión
en vivo subida en el canal de Sergio Sacoto en el youtube.

Intro: D*

e---------5-----------5-
B-------3---3-------3---
G-----0-----------0-----
D---4-----------4-------    x2
A-5-----------5---------
E-----------------------

                Em           Am7
Hoy preciso tu amor, de luna llena
                   D         G
Lo preciso aunque sé que me quema
      G             Em
Este amor que no es más
                Am7
Que mil vasos vacíos
                 D                    G
Sedientos de tu mar de agua dulce y cariño.

            Am7           D
Mas tú me expulsas de tu ser
           Bm7              Em7
Como aquel pez que esta sin vida

               Em7
Sin importarte nada
               Am7
Sin importarte todo
               D
Me dejas sin mañana
            G
De cara al lodo
         Am7
Si me preguntan
                D     Bm7     Em
Prefiero estar así, mojado de ti
                  Am7 (riff 1) D
Aunque sea en tú orilla,
                   G (riff 2) Em
Por siempre en tú orilla
                  Am7 (riff 1) D
Aunque sea en tú orilla,
                   G (riff 2) Em
Por siempre en tú orilla

Riff 1:

e--8---8---8----7--7--7----5--5--5----3--3----2-
B-10--10--10/8--8--8--8/7--7--7--7/5--5--5/3--3-
G-----------------------------------------------


Riff 2:

e-10--10--10------8---8---8----7--7--7----5--5----3-
B-12--12--12/10--10--10--10/8--8--8--8/7--7--7/5--5-
G---------------------------------------------------


SOLO INTERMEDIO:

e----8-7h8p7----7----------------------------7---5---3----
B-10---------10---8-10-7-8-7h8p7-----7-----8---7---5------
G--------------------------------9-8---8-9----------------
D---------------------------------------------------------
A---------------------------------------------------------
E---------------------------------------------------------

e------------------------12----------------------------
E---------------------------------------------------15-
G-------12-14-14b(16)r14----14b(16)-14~-12h14~~~-12----
D-12/14------------------------------------------------
A------------------------------------------------------
E------------------------------------------------------

e------------------------------
B------------15----------------
G-14b(16)r14----14b(16)r14~~~--
D------------------------------
A------------------------------
E------------------------------

e-----------7---5~~~3-3~--
E---------8---7------------
G-5-7---9------------------
D-----9--------------------
A--------------------------
E--------------------------


Yo me quiero mojar en ti como un niño
Que juega con el mar sin importarle el frío
Y me quiero robar de ti las más negras perlas
Que habitan más allá de tus aguas muertas.

Mas tú me expulsas de tu ser
Como aquel pez que esta sin vida

Sin importarte nada
Sin importarte todo
Me dejas sin mañana
De cara al lodo

SI me preguntan
Prefiero estar así, mojado de ti
Aunque sea en tu orilla
Por siempre en tu orilla
Mojado en tu orilla
Por siempre en tu orilla?

SOLO FINAL:

e-----------------------------------------------------------------------
B-----------------------------------------------------------------------
G-9-7---7-9-9/12-12~-12-9-9p7-9---7-9-9/12-12~-129-9p7-9---7-9-9/11-11~-
D-----9-------------------------9------------------------9--------------
A-----------------------------------------------------------------------
E-----------------------------------------------------------------------


e------------12-10/12~~------------12-------------------------------
B---------12--------------------12----------------------------------
G-14b(16)---------------14b(16)-------14b(16)r14-12----14-12--------
D---------------------------------------------------14-------14~~~--
A-------------------------------------------------------------------
E-------------------------------------------------------------------

e------------------------------------------------------------------
B-----------------8~~-5~~------------------------------------------
G-------------7-9---------14b(16)~~(16)r14p12-12h14-14-12-12h14-14-
D-----7---7-9------------------------------------------------------
A-7/9---9----------------------------------------------------------
E------------------------------------------------------------------

e--------10------8----7----5/3--3~~--
E-10/12--12/10--10/8--8/7--7/5--5~~--
G------------------------------------
D------------------------------------
A------------------------------------
E------------------------------------

Hoy preciso tu amor?

   D*     Em7
E--5--   --7--
B--3--   --8--
G--0--   --7--
D--4--   --9--
A--5--   --7--
E--x--   --x--
Suggest correction
Give kudos to tab author, rate the tab!
1 2 3 4 5
comments
print report bad tab
guest
You may want to rate the tab now too:
select rating
Wanna post a correction for this tab? Suggest correction