Oops, an error
Loading. Please wait.

Moriste Tab

103 views 1 this week
no commentswrite comment
1 2 3 4 5
3 more votes to show rating
add to favorites
launch autoscroll
font size
0
reset
how to read this tab
guitar tuner
×
Best way to learn
"Moriste"
Autoscroll
slow
fast
+/-
esc
set tempo
stop
Que tal a todos... Aqui les dejo lo nuevo de Sergio Sacoto.

Sigan el ritmo de la canción y sonará como la original, lo mismo con el solo.
La pequeña parte que tiene el bajo se la puede tocar en la guitarra, por eso
la adjunte.

Peticiones y Recomendaciones a: fercahuenas@

Acorde:

         EADGBe
Emaj7    021100

Intro:

  E                 Emaj7
e-----------------------------------
B-----------------------------------
G-9---9---9---9h11--8---8---8---8h9-
D---9---9---9---------9---9---9-----   x2
A-7-----------------7---------------
E-----------------------------------

Verso 1:
   E         Emaj7              G#m              C#m7
Moriste, el telón ya bajo ya la luz se apagó tu moriste,
      C#m7                     B                     A
Solo fuiste un momento, en mi vida el recuerdo más triste;
      Am       E Emaj7
Tú moriste en mí?


Verso 2:
   E           Emaj7                G#m              C#m7
Moriste, las cortinas cerradas las puertas trabadas moriste,
       C#m7                    B                 A
No hay que voz sobreviva y de negro este día se viste,
     Am        E Emaj7
Tú moriste en mí?


Coro 1:
      E                                           F#m
Es difícil pensar que quien tengo a mi lado es fantasma,
        B                  A                      E  G#m
Que la voz que susurra mi nombre no existe en verdad,
       C#m7                                           F#m
Hoy quisiera creen en las manos que aun recorren mi espalda
       A                 B                  E    Emaj7 G#m C#m7 A B
Desde que me dejaste por ir a sus brazos moriste.

Interludio: (Parte de Bajo en Guitarra)

e----------------------------------------------------------
B----------------------------------------------------------
G-----------------8p6---6p5---4h5--------------------------
D----6-6-4---4/6~-----6-----4-----4-4/5-------4-5-6-4-2/4~-
A-7~-------7--------------------------------4--------------
E---------------------------------------4h5----------------

Verso 3:
   E           Emaj7                  G#m             C#m7
Moriste, los recuerdos los fotos los sueños ya rotos moriste,
     C#m7                 B                A
Debo ver adelante aunque todo mi cuerpo resiste;
     Am        E  Emaj7
Tú moriste en mí?

Coro 2:
       E                                     F#m
Y no puedo dejar de asombrarme al mirar a tu cara,
      B                         A                   E  G#m
Y pensar que eres solo eres producto de mi imaginación,
     C#m7                                  F#m
Que difícil saber que ya nunca tendré tus mañanas,
       A                     B                 D
Desde que aquellos labios tocaron los tuyos moriste.

Solo: D Bm G Gm A B

e--------------------10~-10-10-10p9-5p0------9-10-12-9-------------------
B-------------7-8/10-----------------------------------12p10-------------
G-----------7---------------------------7-6~-----------------9h10p9------
D-----4h5/7---------------------------------------------------------12-9-
A-4h5--------------------------------------------------------------------
E------------------------------------------------------------------------

e--------------------------------------7-9-10-15--15-15/17-18-17-15-
B---------------------------------8h10------------------------------
G-------------7~--------------6h7-----------------------------------
D---------7-9----9p7------7h9---------------------------------------
A---5-7/9------------9h10-------------------------------------------
E-7-----------------------------------------------------------------

e-----------------12p11----------------------
B-14--------------------11-------------------
G----14b(15)r14~-----------11-10p9-----------
D----------------------------------9---------
A------------------------------------9p7-6---
E------------------------------------------7-

Coro 1:
      E                                           F#m
Es difícil pensar que quien tengo a mi lado es fantasma,
        B                  A                      E  G#m
Que la voz que susurra mi nombre no existe en verdad,
       C#m7                                           F#m
Hoy quisiera creen en las manos que aun recorren mi espalda
       A                 B                  E    G#m C#m7
Desde que me dejaste por ir a sus brazos moriste.
       A                 B
Desde que me dejaste por ir a sus brazos?
Suggest correction
Give kudos to tab author, rate the tab!
1 2 3 4 5
comments
print report bad tab
guest
You may want to rate the tab now too:
select rating
Wanna post a correction for this tab? Suggest correction