Oops, an error
Loading. Please wait.

La Pastillita Tab

61 views 1 this week
no commentswrite comment
1 2 3 4 5
3 more votes to show rating
add to favorites
launch autoscroll
font size
0
reset
how to read this tab
guitar tuner
×
Best way to learn
"La Pastillita"
Autoscroll
slow
fast
+/-
esc
set tempo
stop
LA PASTILLITA

Una versión en guitarra, punteo.
CON CAPO EN EL PRIMER TRASTE

En general los acordes de la canción son
D MAYOR, G MAYOR, A MAYOR
Sin capo traste serían:
D#MAYOR, G# MAYOR, B MAYOR


e, b, g, d, a, E Sólo indican qué cuerda.
Los trastes se cuentan a partir del capo-traste!

Espero que sea de su agrado!

INTRO:
SON LOS ACORDES DE D MAYOR Y A MAYOR ARPEGIADOS:
ESTO 2 VECES:
e|----------------------------0----0-0-|
b|----3----------3--------2-3------2-2-|
g|--2---2------2---2----2----------2-2-|
d|0-------0-0---------2------------2-2-|
a|---------------------------------0-0-|
E|---------------------------------0-0-|

LO ANTERIOR MÁS UNA SEGUNDA GUITARRA (2 VECES):
e|----------2-2-------------0-0|
b|----3-----3-3-------2-----2-2|
g|--2---2---2-2-----2---2---2-2|
d|0-------0-0-0---2-------2-2-2|
a|-----------------------------|
E|-----------------------------|

Ay Dios mío que bonito es sentirse enamorado
e|--------------------------------|
b|-------------------------3-3-0-0|
g|2-0---0-2-0---0-2--2-2-2--------|
d|----3-------3-------------------|
a|--------------------------------|
E|--------------------------------|

Tener a la persona que uno quiere siempre a su lado
e|--0---0---0---0------------------|
b|3---3---3---3---3-2-2--2-3-0-----|
g|-----------------------------2-2-|
d|---------------------------------|
a|---------------------------------|
E|---------------------------------|

Disfrutar cada momento, cada segundo, cada espacio de tiempo

e|---------------------------------0-0-2--|
b|-------------------------------3-------3|
g|-0-2-3-2-0-2-3-3-2-0-2-3-3-3-3----------|
d|----------------------------------------|
a|----------------------------------------|
E|----------------------------------------|

Ser los dos en uno solo, hasta donde nos lleve el viento
e|-3-2-0-------0-0---0-0-0-0-0-3-2-0--|
b|-------3-3-3-----------------------3|
g|------------------------------------|

PRE-ESTRIBILLO:

No sé que me diste porque no puedo estar sin ti
e|-----------------2-2-2-2-0--|
b|3-0---0-3-3----3-----------3|
g|----2--------2--------------|
d|----------------------------|

Hace tiempo quería decirte que lo mismo me pasa a mí, eh!
e|-2-5-3-3-3-3-2-0-0--0-3-2-2-2-2-0--|
b|----------------------------------3|
g|-----------------------------------|
No sé que me diste porque no puedo estar sin ti
e|-----------------2-2-2-2-0--|
b|3-0---0-3-3----3-----------3|
g|----2--------2--------------|
d|----------------------------|

Cuando yo estoy a tu lado me siento un hombre feliz
e|-2-5-3-3-3-3-2-0-0--3-2-2-2-2-0--|
b|--------------------------------3|
g|---------------------------------|

No sé que me diste porque no puedo estar sin ti
e|-----------------2-2-2-2-0--|
b|3-0---0-3-3----3-----------3|
g|----2--------2--------------|
d|----------------------------|

Me gusta cómo me besas, yo sin ti no se vivir.
e|-5-3-3-3-3-2-0-0--0-3-2-2-2-2-0-|
b--------------------------------3|
g|--------------------------------|

No sé que me diste porque no puedo estar sin ti
e|-----------------2-2-2-2-0--|
b|3-0---0-3-3----3-----------3|
g|----2--------2--------------|
d|----------------------------|
a|----------------------------|

A mí se me olvida todo cuando yo estoy junto a ti
e|-5-3-3-3-3-2-0-0--0-3-2-2-2-2-0-|
b--------------------------------3|

Bembelen bem bem (3X)
Bem Bem Bem

e|---------------0------------------------------------0|
b|3-3-3---3---3----2-2-2---2---2-3-0-0-0----0---0---2--|
g|------2---2------------2---2------------0---0---2----|
d|-----------------------------------------------------|

ESTRIBILLO:

Tú eres la mujer que yo quiero, tú eres la que me hace feliz
e|-2-2-2-2-2-2-2-2-3-3--3-3-3-0-0-0-0-2|
b--------------------------------------|
g|-------------------------------------|

Y sin tu cariño, mami, te juro yo no sé vivir
e|2-5-3-2-0-----------0-2-0------|
b|---------3--3-3-3-3-------3-2-3|
g|-------------------------------|

Eres tú mi medicina, la que me sana y que me alivia
e|-2-2-2-2-2-2-3-3--3-3-3-0-0-0-0-2--|
b-----------------------------------3|
g|-----------------------------------|

La que me lo cura todo sin yo beberme una pastilla
e|2-5-3-2-0--------0-2-0---------|
b|---------3-3-3--3-----3-2-2-3-3|
g|-------------------------------|

Cuando te veo me contento, cuando te vas me pongo triste
e|-2-2-2-2-2-2-2-2-3-3--3-3-3-0-0-0-0-2--|
b---------------------------------------3|
g|---------------------------------------|

Que no comprendo cariñito que fue lo que tú a mi me hiciste
e|2-2-5-3-2-0------------0-2-0-------|
b|------------3-3-3--3-3------3-2-3-3|
g|-----------------------------------|

Ay dios mío que bonito es sentirse enamorado
e|2-2-2-2-2-0-------------------|
b|-----------3-2-0-0-0-0--------|
g|-----------------------2---2--|
d|-------------------------2---4|
a|------------------------------|
E|------------------------------|

Tener a la persona que uno quiere siempre a su lado
e|-2-2-2-2-2-0----------------0-|
b|-------------3-2-0-0------2--3|
g|----------------------2-2-----|
d|------------------------------|
a|------------------------------|
E|------------------------------|

INTERMEDIO I:

(2 VECES)

e|--2-2----2-2----2-2---3-3---3-3---5-3-2|
b|3-----3-------3-----3-----3-----3------|
g|---------------------------------------|
d|---------------------------------------|
a|---------------------------------------|
E|---------------------------------------|

A su lado?

(2 VECES), Y SIGUE COMO FONDO PARA EL RESTO DEL INTERMEDIO I

e|-----------------------------------------|
b|----3-----3-----3-----3-----3-----3---3-3|
g|--2-----2-----2-----2-----2-----2-----2-2|
d|4-----4-----4-----4-----4-----4-----4----|
a|-----------------------------------------|
E|-----------------------------------------|

(2 VECES)

e|---------------------|
b|--2-5-3-2-----0-3-0-2|
g|3-----------3--------|
d|---------------------|
a|---------------------|
E|---------------------|

(2 VECES)


e|----------2-2-------------0-0|
b|----3-----3-3-------2-----2-2|
g|--2---2---2-2-----2---2---2-2|
d|0-------0-0-0---2-------2-2-2|
a|-----------------------------|
E|-----------------------------|


INTERMEDIO II
ESTO 2 VECES:
e|----------------------------0-|
b|----3----------3--------2-3---|
g|--2---2------2---2----2-------|
d|0-------0-0---------2---------|
a|------------------------------|
E|------------------------------|

Anaisa... Cuida a este negro,


(2 VECES)

Échame agua bendita

e|2-2--2-2--2-2--2-0----|
b|3-3--3-3--3-3--3---3-2|
g|----------------------|

(2 VECES)

e|-------------------------------------------|
b|----3-----3-----3-----3-----3-----3-3-----3|
g|--2-----2-----2-----2-----2-----2-----2--2-|
d|4-----4-----4-----4-----4-----4---------4--|
a|-------------------------------------------|
E|-------------------------------------------|

Anaisa... Cuida a este negro. Échale agua bendita!

Bembelen bem bem (3X)
Bem Bem Bem

e|---------------0------------------------------------0|
b|3-3-3---3---3----2-2-2---2---2-3-0-0-0----0---0---2--|
g|------2---2------------2---2------------0---0---2----|
d|-----------------------------------------------------|

ESTRIBILLO (2 VECES):

Tú eres la persona que yo quiero, tú eres la que me hace feliz
e|-2-2-2-2-2-2-2-2-2-3-3--3-3-3-0-0-0-0-2|
b---------------------------------------|
g|--------------------------------------|

Y sin tu cariño, mami, te juro yo no se vivir
e|2-5-3-2-0-----------0-2-0------|
b|---------3--3-3-3-3-------3-2-3|
g|-------------------------------|

Eres tu mi medicina la que me sana y que me alivia
e|-2-2-2-2-2-2-3-3--3-3-3-0-0-0-0-2--|
b-----------------------------------3|
g|-----------------------------------|

La que me lo cura todo sin yo beberme una pastilla
e|2-5-3-2-0--------0-2-0---------|
b|---------3-3-3--3-----3-2-2-3-3|
g|-------------------------------|


Cuando te veo me contento, cuando te vas me pongo triste
e|-2-2-2-2-2-2-2-2-3-3--3-3-3-0-0-0-0-2--|
b---------------------------------------3|
g|---------------------------------------|


Que no comprendo cariñito que fue lo que tú a mi me hiciste
e|2-2-5-3-2-0------------0-2-0-------|
b|------------3-3-3--3-3------3-2-3-3|
g|-----------------------------------|

Ay dios mío que bonito es sentirse enamorado
e|2-2-2-2-2-0-------------------|
b|-----------3-2-0-0-0-0--------|
g|-----------------------2---2--|
d|-------------------------2---4|
a|------------------------------|
E|------------------------------|


Tener a la persona que uno quiere siempre a su lado
e|-2-2-2-2-2-0----------------0-|
b|-------------3-2-0-0------2--3|
g|----------------------2-2-----|
d|------------------------------|
a|------------------------------|
E|------------------------------|

INTERMEDIO I:

(2 VECES)

e|--2-2----2-2----2-2---3-3---3-3---5-3-2|
b|3-----3-------3-----3-----3-----3------|
g|---------------------------------------|
d|---------------------------------------|
a|---------------------------------------|
E|---------------------------------------|

A su lado?

(2 VECES), Y SIGUE COMO FONDO PARA EL RESTO DEL INTERMEDIO I

e|-----------------------------------------|
b|----3-----3-----3-----3-----3-----3---3-3|
g|--2-----2-----2-----2-----2-----2-----2-2|
d|4-----4-----4-----4-----4-----4-----4----|
a|-----------------------------------------|
E|-----------------------------------------|

(2 VECES)

e|---------------------|
b|--2-5-3-2-----0-3-0-2|
g|3-----------3--------|
d|---------------------|
a|---------------------|
E|---------------------|

(2 VECES)


e|----------2-2-------------0-0|
b|----3-----3-3-------2-----2-2|
g|--2---2---2-2-----2---2---2-2|
d|0---------0-0---2---------2-2|
a|-----------------------------|
E|-----------------------------|

(2 VECES)Y DE FONDO HASTA EL FINAL
e|-------------------------------------------|
b|----3-----3-----3-----3-----3-----3-3-----3|
g|--2-----2-----2-----2-----2-----2-----2--2-|
d|4-----4-----4-----4-----4-----4---------4--|
a|-------------------------------------------|
E|-------------------------------------------|

(2 VECES)

e|2-2--2-2--2-2--2-0----|
b|3-3--3-3--3-3--3---3-2|
g|----------------------|

(2 VECES)

e|---------------------|
b|--2-5-3-2-----0-3-0-2|
g|3-----------3--------|
d|---------------------|
a|---------------------|
E|---------------------|

e|------------2-----2-5-10|
b|----3----3------3-------|
g|--2----2------2---------|
d|4-----------------------|
a|------------------------|
E|------------------------|
Suggest correction
Give kudos to tab author, rate the tab!
1 2 3 4 5
comments
print report bad tab
guest
You may want to rate the tab now too:
select rating
Wanna post a correction for this tab? Suggest correction