Oops, an error
Loading. Please wait.

Disculpe Usted Tab

218 views 1 this week
no commentswrite comment
1 2 3 4 5
3 more votes to show rating
add to favorites
launch autoscroll
font size
0
reset
how to read this tab
guitar tuner
×
Best way to learn
"Disculpe Usted"
Autoscroll
slow
fast
+/-
esc
set tempo
stop
BUENO AMIGOS! aquí les dejo esta canción
espero les sirva aportación de su amigo
"Job garcía"

                F                 G         Em             Am
E|-----------------------------------------------------------------------|
A|-----------------------------------------------------------------------|
D|-----------------------------------------------------------------------|
G|------5-5-----------------7--5-5-4--4-4---7--7-7--7-5-4-4-5------------|
B|----------6-5-6-5-6-5-6-5----------------5-5--5-5----------------------|
e|-----------------------------------------------------------------------|


             F               G          C     G       C
E|-----------------------------------------------------------------------|
A|-----------------------------------------------------------------------|
D|------------------------------5----------------------------------------|
G|---5-5-7-5-7--5-7-5-7--5-5-4-4-------7-7-5-------7-5-------------------|
B|---------------------------------5-5---------6-5-----------------------|
e|-----------------------------------------------------------------------|

C               G               C
 DISCULPE USTED NO QUIERO MOLESTARLO
          F
 ES NECESARIO DECIRLE UNAS PALABRAS
                     G                C-Am
 YO SE MUY BIEN QUE HOY CAMINA DE SU LADO
                   Dm   G                C
 IGUAL QUE HACE UN AÑO ELLA LO HACIA CONMIGO.

                   G              C
 LE VOY A CONFESAR DEL MODO MAS AMABLE
                  F
 YO CREO INDISPENSABLE CONFIARLE ALGUNAS COSAS
                    G                  C
 NO QUIERO QUE LE PASE LO QUE PASO CONMIGO
 Am                    Dm    G                    C   C7
 Y QUE USTED PIERDA EL CIELO HOY QUE LO HA CONSEGUIDO.

            F                    G
 LE GUSTA MUCHO QUE LE LLEVEN SERENATA
            Em                         Am
 QUE LA DESPIERTEN CON UN BESO EN LAS MAÑANAS
           F                      G
 QUE LE REGALEN UNA HERMOSA ROSA ROJA
         C              G              C   C7
 ESE DETALLE ES EL QUE MAS LA VUELVE LOCA.
            F                    G
 MAS NUNCA DUDE DE SU AMOR NO HA DE ESPERARSE
              Em                       Am
 ELLA ES MAS FIEL DE LO QUE PUEDA IMAGINARSE
             F                       G
 QUE NUNCA CRUCE POR SU MENTE TRAICIONARLA
           C   G       C
 ESO MI AMIGO ESO LA MATA.


intro:
                F                 G         Em             Am
E|-----------------------------------------------------------------------|
A|-----------------------------------------------------------------------|
D|-----------------------------------------------------------------------|
G|------5-5-----------------7--5-5-4--4-4---7--7-7--7-5-4-4-5------------|
B|----------6-5-6-5-6-5-6-5----------------5-5--5-5----------------------|
e|-----------------------------------------------------------------------|


             F               G          C     G       C
E|-----------------------------------------------------------------------|
A|-----------------------------------------------------------------------|
D|------------------------------5----------------------------------------|
G|---5-5-7-5-7--5-7-5-7--5-5-4-4-------7-7-5-------7-5-------------------|
B|---------------------------------5-5---------6-5-----------------------|
e|-----------------------------------------------------------------------|


C                  G              C
 LE VOY A CONFESAR DEL MODO MAS AMABLE
                  F
 YO CREO INDISPENSABLE CONFIARLE ALGUNAS COSAS
                    G                  C
 NO QUIERO QUE LE PASE LO QUE PASO CONMIGO
 Am                    Dm    G                    C   C7
 Y QUE USTED PIERDA EL CIELO HOY QUE LO HA CONSEGUIDO.

            F                    G
 LE GUSTA MUCHO QUE LE LLEVEN SERENATA
            Em                         Am
 QUE LA DESPIERTEN CON UN BESO EN LAS MAÑANAS
           F                      G
 QUE LE REGALEN UNA HERMOSA ROSA ROJA
         C              G              C   C7
 ESE DETALLE ES EL QUE MAS LA VUELVE LOCA.
            F                    G
 MAS NUNCA DUDE DE SU AMOR NO HA DE ESPERARSE
              Em                       Am
 ELLA ES MAS FIEL DE LO QUE PUEDA IMAGINARSE
             F                       G
 QUE NUNCA CRUCE POR SU MENTE TRAICIONARLA
           C   G       C
 ESO MI AMIGO ESO LA MATA.
Suggest correction
Give kudos to tab author, rate the tab!
1 2 3 4 5
comments
print report bad tab
guest
You may want to rate the tab now too:
select rating
Wanna post a correction for this tab? Suggest correction