Oops, an error
Loading. Please wait.

Baby Bass Tab

version 1
version 1

Whole song

Interactive

3,987 views 6 this week
2 commentsread comments
1 2 3 4 5
excellent!
x 3
add to favorites
launch autoscroll
font size
0
reset
guitar tuner
Tab Pro tools
  • play this tab
  • loop segment
  • change instrument
  • show fretboard
  • metronome
Autoscroll
slow
fast
+/-
esc
set tempo
stop
Contributor
Difficulty
Tabbers playing skills
novice
intermediate ++
-------------------------------------------------------------------------------
			     Baby - Serj Tankian
-------------------------------------------------------------------------------

Tabbed By : Sevan K.
e-mail: masterdebassist@yahoo.com

Tuning:DADG

First off, Serj rules! woo!

Now, wait a couple of measures..acoustic guitar and sing, when drums and guitar comes 
so does bass
0:49 chorus
G|---------------------------------------------------------------------------|
D|---------------------------------------------------------------------------|
A|------------2---2--2--------------2---2--2---3---3--3---5---5--5---2---2--2|
D|-2---2--2--------------2---2--2--------------------------------------------|

G|---------|
D|---------|
A|-2-0-----|
D|-----5-4-|   repeat chorus...don't do this at the end second time

G|---------------------------------------------------------------------------|
D|---------------------------------------------------------------------------|
A|----------------------3---3-3---3-2---2-2----------------------------------|
D|--2---2-2---2---2-2--------------------------------------------------------|x2
repeat chorus both times same ending

in triplet pattern...
G|---------------------------------------------------------------------------|
D|---------------------------------------------------------------------------|
A|-------------------0-2-0-------------------0-2-0---------------------------|
D|-2-2-2-2-4-5-2-2-2-------2-2-2-2-4-5-2-2-2---------------------------------|

                              repeat these two
G|---------------------------------------------------------------------------|
D|---------------------------------------------------------------------------|
A|-3---3-3--3-3---3---3-3--3-3---2---2-2--2-2---2---2-2--2-2-----------------|
D|---------------------------------------------------------------------------|
then..

G|---------------------------------------------------------------------------|
D|---------------------------------------------------------------------------|
A|-------------------0-2-0-------------------0-2-0---------------------------|
D|-2-2-2-2-4-5-2-2-2-------2-2-2-2-4-5-2-2-2---------------------------------|

G|---------------------------------------------------------------------------|
D|---------------------------------------------------------------------------|
A|-3---3-3--3-3---3---3-3--3-3---2---2-2--2-2---2---2-2--2-2-2-0-------------|
D|---------------------------------------------------------------5-4---------|

G|---------------------------------------------------------------------------|
D|---------------------------------------------------------------------------|
A|-------------------0-2-0-------------------0-2-0---------------------------|
D|-2-2-2-2-4-5-2-2-2-------2-2-2-2-4-5-2-2-2---------------------------------|

G|---------------------------------------------------------------------------|
D|---------------------------------------------------------------------------|
A|-3---3-3--3-3---3---3-3--3-3---2---2-2--2-2---2---2-2--2-2-2---------------|
D|---------------------------------------------------------------------------|

G|-------------------------------------------------------------------------------|
D|-------------------------------------------------------------------------------|
A|-2---2-2--2-2-2-2-0------------------------------------------------------------|
E|--------------------5-4--------------------------------------------------------|

repeat chorus and your set
| /  slide up
| \  slide down
| h  hammer-on
| p  pull-off
| ~  vibrato
| +  harmonic
| x  Mute note
===============================================================================
comments
We did not receive enough feedback on this tab! Please rate:
print report bad tab
1 2 3 4 5
2 comments total.
+2 reply
emo=Fights=yay wrote on December 11 2007, 07:22 am

ok u said my tab for unthinking majority is wrong, youre probably right, thanks for this one but could you show me what
the tab for unthinking majority is then. And damn right serj rules

0 reply
fireedud wrote on August 28 2008, 07:18 pm

I never knew there wass bass guitaar in any of the album. I'll listen to it again

I want to post or [tab]
guest
You may want to rate the tab now too:
select rating
Please do not post tabs as comments. Select "correction" instead!