Oops, an error
Loading. Please wait.

Beethovens Cunt Bass Tab

version 1
version 1

Whole song

Interactive

1,941 views 1 this week
1 commentread comment
1 2 3 4 5
please rate
add to favorites
launch autoscroll
font size
0
reset
guitar tuner
Tab Pro tools
  • play this tab
  • loop segment
  • change instrument
  • show fretboard
  • metronome
×
Best way to learn
"Beethovens Cunt"
Autoscroll
slow
fast
+/-
esc
set tempo
stop
Contributor
Difficulty
Tuning
intermediate
C G C F A D
-------------------------------------------------------------------------------
			     Beethoven's C*** - Serj Tankian
-------------------------------------------------------------------------------

Tabbed By : Necrotic
e-mail: joelschwallier@gmail.com

Tuning: Drop C (low to high CGCF)
It took me a while to tab with all the difficult to hear fills.
I rated it intermediate because it is sorta hard to memorize the whole song.
I hope you like it even though i know for a fact it IS NOT 100% perfect Please rate.

Intro
F|--------------------------------------------------------------------|
C|----------------------------------------3-5-3-----------3-5-3-------|
G|4-6-4-6-4-6-4-6-4-6-4-6-4-6-4-6-4-6-4-6-------6-4-6-4-6-------6-4-6-|
C|--------------------------------------------------------------------|

Pre Verse (most of it just quiet fills)
F|--------------------------------------------------------------|
C|--------------------------------------------------------------|
G|--------------------------------------------------------------|
C|3-3-----3-3----3/7-7---7-8-5---7875-5-5---5/7-7---7-8-5--7875-|
                         ^ ^ ^                      ^ ^ ^ Accent
Verse-Slap 
F|--------------------------------|
C|--------------------------------|
G|--------------------------------|
C|0-0-0-0-3-3-3-3-5-5-5-5-8-8-8-8-|x2

Pre-Chorus
F|------------------------------------------------------------------------------|
C|--------4-44-444--------4-44-444---4-4---4-4--4-6-4-6-4-6-4-6-6-8-6-8-6-8-6-8-|
G|0-00-000--------0-00-000--------0-0---0-0-------------------------------------|
C|------------------------------------------------------------------------------|

Chorus (again, a lot of quiet fills that took FOREVER to hear...)
F|--------------------------------------------------------|
C|--------------------------------------------------------|
G|--------------------------------------------------------|
C|8--5--0--57578-8--5--0--88558-8--5--0---8-558-8--5--0---|

F|--------------------------------|
C|--------------------------------|
G|4-6-4-6-4-6-4-6-4-6-4-6-4-6-4-6-|
C|--------------------------------|

2nd Pre-Verse 
F|--------|-----------------------------------------|
C|--------|-----------------------------------------|
G|--------|-----------------------------------------|
C|3/5-33/5|3/7---7-77---7-8-5---3-3---7-7---7-8-5---|

Verse-Slap 
F|--------------------------------|
C|--------------------------------|
G|--------------------------------|
C|0-0-0-0-3-3-3-3-5-5-5-5-8-8-8-8-|x2

Pre-Chorus
F|------------------------------------------------------------------------------|
C|--------4-44-444--------4-44-444---4-4---4-4--4-6-4-6-4-6-4-6-6-8-6-8-6-8-6-8-|
G|0-00-000--------0-00-000--------0-0---0-0-------------------------------------|
C|------------------------------------------------------------------------------|

Chorus 
F|--------------------------------------------------------|
C|--------------------------------------------------------|
G|--------------------------------------------------------|
C|8--5--0--57578-8--5--0--88558-8--5--0---8-558-8--5--0---|

F|--------------------------------|
C|--------------------------------|
G|4-6-4-6-4-6-4-6-4-6-4-6-4-6-4-6-|
C|--------------------------------|

Piano Part
F|----------------------------|
C|----------------------------|
G|----------------------------|
C|8-88---7-77---3-33---2-22---|x2

Interlude
F|--------------------------------|  |-----------------------------------------|
C|--------------------------------|  |-----------------------------------------|
G|--------------------------------|  |-----------------------------------------|
C|88888888777777773333333355332200|x3|8888888877777777333333332222222288888888-|

Chorus 
F|--------------------------------------------------------|
C|--------------------------------------------------------|
G|--------------------------------------------------------|
C|8--5--0--57578-8--5--0--88558-8--5--0---8-558-8--5--0---|

F|--------------------------------|
C|--------------------------------|
G|4-6-4-6-4-6-4-6-4-6-4-6-4-6-4-6-|
C|--------------------------------|

Outro         
F|--------------------------------------------------------------------|
C|----------------------------------------3-5-3-----------3-5-3-------|
G|4-6-4-6-4-6-4-6-4-6-4-6-4-6-4-6-4-6-4-6-------6-4-6-4-6-------6-4-6-|
C|--------------------------------------------------------------------|

Last note
F|-----|
C|-----|
G|-----|
C|3----|

| /  slide up
| \  slide down
| h  hammer-on
| p  pull-off
| ~  vibrato
| +  harmonic
| x  Mute note
===============================================================================
comments
We did not receive enough feedback on this tab! Please rate:
print report bad tab
1 2 3 4 5
1 comment total.
0 reply
Second Bass wrote on February 9 2009, 07:51 pm

Thanks for tabbing this. I can completely agree that its almost impossible to hear the bass at some points. Turn up the Bass Serj!

I want to post or [tab]
guest
You may want to rate the tab now too:
select rating
Please do not post tabs as comments. Select "correction" instead!