Oops, an error
Loading. Please wait.

Deafening Silence Tab

3,890 views 12 this week
2 commentsread comments
1 2 3 4 5
x 4
add to favorites
launch autoscroll
font size
0
reset
how to read this tab
guitar tuner
Autoscroll
slow
fast
+/-
esc
set tempo
stop
Help us to improve Ultimate-Guitar.com Take our survey!
×
Author
Intro (also repeated later in the song):

E|-4------4---------4--------4--3-----------------1--------1----------------3-8--|
B|------4---------4--------4------4-------------1--------1--------3-6-----4------|
G|----5---------5--------5----------3---------1--------1--------4------/5--------|
D|-6---------/6-------/6--------------5----/3-------/3--------5------------------|
A|-------------------------------------------------------------------------------|
E|-------------------------------------------------------------------------------|

This part is then repeated throughout the song:

E|-11-------11-------11------10-------10-------10------|
B|----13-------13-------13------13-------13-------13---|
G|-------12-------12---------------12-------12---------|
D|-----------------------------------------------------|
A|-----------------------------------------------------|
E|-----------------------------------------------------|
Suggest correction
comments
print report bad tab
2 comments total.
+3 reply
Hannah_029 10 Feb 12, 2013 11:34 PM

EPIC SONG did awesome on the tablature.

+1 reply
Dark Bushi 10 Mar 26, 2013 07:59 AM

Splendid tab. Thank you, man.

guest
You may want to rate the tab now too:
select rating
Wanna post a correction for this tab? Suggest correction