Oops, an error
Loading. Please wait.

Empty Walls Tab

version 1
version 1

Whole song

Interactive

131,846 views 69 this week
50 commentsread comments
1 2 3 4 5
x 40
add to favorites
launch autoscroll
font size
0
reset
how to read this tab
guitar tuner
Autoscroll
slow
fast
+/-
esc
set tempo
stop
Help us to improve Ultimate-Guitar.com Take our survey!
×
Author
Difficulty
novice
[Intro] x2
e|-------------------------|
B|-------------------------|
G|-------------------------|
D|-------------------------|
A|--3-3-5-6----------------|
E|-------------------------| x8

e|-------------------------|
B|-------------------------|
G|-------------------------|
D|-------------------------|
A|--8-8-10-11--------------|
E|-------------------------| x4

e|-------------------------|
B|-------------------------|
G|-------------------------|
D|-------------------------|
A|--6-6-8-10---------------|
E|-------------------------| x2

e|-------------------------|
B|-------------------------|
G|-------------------------|
D|-------------------------|
A|--5-5-7-8----------------|
E|-------------------------| x2

[Verse]
e|----------------------------|
B|----------------------------|
G|----------------------------|
D|------5------------8--------|
A|--5-6---8-6----5-6----------|
E|----------------------------| x6

[Bridge] x2
e|-----------------------------------|
B|-----------------------------------|
G|-----------------------------------|
D|--10------8------3------1----------|
A|--10------8------3------1----------|
E|--10-x6---8-x6---3-x6---1-x6-------|

[Chorus] x2
e|-----------------------------------|
B|-----------------------------------|
G|-----------------------------------|
D|--10------8------6------3----------|
A|--10------8------6------3----------|
E|--10-x6---8-x6---6-x6---3-x6-------|

[Verse]
e|----------------------------|
B|----------------------------|
G|----------------------------|
D|------5------------8--------|
A|--5-6---8-6----5-6----------|
E|----------------------------| x4

[Bridge] x2
e|-----------------------------------|
B|-----------------------------------|
G|-----------------------------------|
D|--10------8------3------1----------|
A|--10------8------3------1----------|
E|--10-x6---8-x6---3-x6---1-x6-------|

[Chorus] x4
e|-----------------------------------|
B|-----------------------------------|
G|-----------------------------------|
D|--10------8------6------3----------|
A|--10------8------6------3----------|
E|--10-x6---8-x6---6 x6---3-x6-------|

[Bridge] x2
e|-----------------------------------|
B|-----------------------------------|
G|-----------------------------------|
D|--10------8------3------1----------|
A|--10------8------3------1----------|
E|--10-x6---8-x6---3-x6---1-x6-------|

[Chorus] x2
e|-----------------------------------|
B|-----------------------------------|
G|-----------------------------------|
D|--10------8------6------3----------|
A|--10------8------6------3----------|
E|--10-x6---8-x6---6-x6---3-x6-------|

[Instrumental]
e|-------------------------|
B|-------------------------|
G|-------------------------|
D|-------------------------|
A|--3-3-5-6----------------|
E|-------------------------| x8

e|-------------------------|
B|-------------------------|
G|-------------------------|
D|-------------------------|
A|--8-8-10-11--------------|
E|-------------------------| x4

e|-------------------------|
B|-------------------------|
G|-------------------------|
D|-------------------------|
A|--6-6-8-10---------------|
E|-------------------------| x2

e|-------------------------|
B|-------------------------|
G|-------------------------|
D|-------------------------|
A|--5-5-7-8----------------|
E|-------------------------| x2


************************************

| x  Dead note

************************************
Suggest correction
comments
print report bad tab
50 comments total. Showing first comments.
+2 reply
gr33nd4yr0ck5 10 Sep 15, 2007 12:57 PM

so does anyone know if serj plays in standard or drop-c in his single album?

+1 reply
richardsmith199 20 Sep 17, 2007 03:15 PM

it's dropped in this... cos theres a chord on the low string with all 1's... but if it's drop D or C or wotever i dunno... it shud b C cos serj sounds best with drop C but i dunno if this sounds low enough for drop C so :S

+1 reply
inxthexface 10 Sep 17, 2007 04:14 PM

i'm pretty sure this tab is in drop d afterlistnin to it n playin

guest
You may want to rate the tab now too:
select rating
Wanna post a correction for this tab? Suggest correction