Oops, an error
Loading. Please wait.

Empty Walls Tab

version 1
version 1

Whole song

Interactive

129,581 views 99 this week
50 commentsread comments
1 2 3 4 5
accurate
x 39
add to favorites
launch autoscroll
font size
0
reset
how to read this tab
guitar tuner
Tab Pro tools
  • play this tab
  • loop segment
  • change instrument
  • show fretboard
  • metronome
×
Best way to learn
"Empty Walls"
Autoscroll
slow
fast
+/-
esc
set tempo
stop
Contributor
Difficulty
novice
   intro x2

-------------------------|
-------------------------|
-------------------------|
-------------------------|
--3-3-5-6----------------|
-------------------------| x8

-------------------------|
-------------------------|
-------------------------|
-------------------------|
--8-8-10-11--------------|
-------------------------| x4

-------------------------|
-------------------------|
-------------------------|
-------------------------|
--6-6-8-10---------------|
-------------------------| x2

-------------------------|
-------------------------|
-------------------------|
-------------------------|
--5-5-7-8----------------|
-------------------------| x2

     verse

----------------------------|
----------------------------|
----------------------------|
------5------------8--------|
--5-6---8-6----5-6----------|
----------------------------| x6

     bridge x2

-----------------------------------|
-----------------------------------|
-----------------------------------|
--10    --8    --3    --1    ------|
--10    --8    --3    --1    ------|
--10 x6 --8 x6 --3 x6 --1 x6 ------|

     choros x2

-----------------------------------|
-----------------------------------|
-----------------------------------|
--10    --8    --6    --3    ------|
--10    --8    --6    --3    ------|
--10 x6 --8 x6 --6 x6 --3 x6 ------|

     verse

----------------------------|
----------------------------|
----------------------------|
------5------------8--------|
--5-6---8-6----5-6----------|
----------------------------| x4

     bridge x2

-----------------------------------|
-----------------------------------|
-----------------------------------|
--10    --8    --3    --1    ------|
--10    --8    --3    --1    ------|
--10 x6 --8 x6 --3 x6 --1 x6 ------|

     choros x4

-----------------------------------|
-----------------------------------|
-----------------------------------|
--10    --8    --6    --3    ------|
--10    --8    --6    --3    ------|
--10 x6 --8 x6 --6 x6 --3 x6 ------|

     bridge x2

-----------------------------------|
-----------------------------------|
-----------------------------------|
--10    --8    --3    --1    ------|
--10    --8    --3    --1    ------|
--10 x6 --8 x6 --3 x6 --1 x6 ------|

     choros x2

-----------------------------------|
-----------------------------------|
-----------------------------------|
--10    --8    --6    --3    ------|
--10    --8    --6    --3    ------|
--10 x6 --8 x6 --6 x6 --3 x6 ------|

   intro x1

-------------------------|
-------------------------|
-------------------------|
-------------------------|
--3-3-5-6----------------|
-------------------------| x8

-------------------------|
-------------------------|
-------------------------|
-------------------------|
--8-8-10-11--------------|
-------------------------| x4

-------------------------|
-------------------------|
-------------------------|
-------------------------|
--6-6-8-10---------------|
-------------------------| x2

-------------------------|
-------------------------|
-------------------------|
-------------------------|
--5-5-7-8----------------|
-------------------------| x2
comments
print report bad tab
50 comments total. Showing first comments.
+1 reply
gr33nd4yr0ck5 wrote on September 15 2007, 12:57 pm

so does anyone know if serj plays in standard or drop-c in his single album?

0 reply
richardsmith199 wrote on September 17 2007, 03:15 pm

it's dropped in this... cos theres a chord on the low string with all 1's... but if it's drop D or C or wotever i dunno... it shud b C cos serj sounds best with drop C but i dunno if this sounds low enough for drop C so :S

+1 reply
inxthexface wrote on September 17 2007, 04:14 pm

i'm pretty sure this tab is in drop d afterlistnin to it n playin

I want to post or [tab]
guest
You may want to rate the tab now too:
select rating
Please do not post tabs as comments. Select "correction" instead!