Oops, an error
Loading. Please wait.

Empty Walls Bass Tab

version 2
version 2

Whole song

Interactive

1,474 views 3 this week
1 commentread comment
1 2 3 4 5
please rate
add to favorites
launch autoscroll
font size
0
reset
guitar tuner
Tab Pro tools
  • play this tab
  • loop segment
  • change instrument
  • show fretboard
  • metronome
Autoscroll
slow
fast
+/-
esc
set tempo
stop
Contributor
Difficulty
Tuning
intermediate
C G C F A D
**********************************
Serj Tankian - Empty Walls
*******************************+**

-tabbed by "zero83"
-Also VISIT MY BAND at: www.youtube.com/user/ZEROSYSTEMband/videos

0:02
PART A: (2x) 
F--------------------------| x 2
C--------------------------|
G-5-5-5-5-5-5-5-5----------|
C--------------------------|

F--------------------------| x 2
C--------------------------|
G--------------------------|
C-8-8-8-8-8-8-8-8----------|

F--------------------------| x 2
C--------------------------|
G-1010101010101010---------|
C--------------------------|

F--------------------------| x 1
C--------------------------|
G-8-8-8-8-8-8-8-8----------|
C--------------------------|

F--------------------------| x 1
C--------------------------|
G-7-7-7-7-7-7-7-7----------|
C--------------------------|


0:26
PART B1: (1x)
F--------------------------| x 3 
C--------------------------|     
G-5~---5-7--8--------------|     
C--------------10~---------|    

F--------------------------| X 1
C--------------------------|
G-5~-----------------------|
C--------------10~---------| 

F--------------------------| X 1
C--------------------------|
G-5~---5-7--8--------8-10~-|
C--------------10~---------|

F--------------------------| X 1
C--------------------------|
G-5~-----------------------|
C--------------10~---------| 


1:02
PART C: (2x) 
F--------------------------| x 1
C--------------------------|
G-5-5-5-5-5-5-5-5----------|
C--------------------------|

F--------------------------| x 1
C--------------------------|
G-3-3-3-3-3-3-3-3----------|
C--------------------------|

F--------------------------| x 1
C--------------------------|
G-1010101010101010---------| <- these are 10s
C--------------------------|

F--------------------------| x 1
C--------------------------|
G-8-8-8-8-8-8-8-8----------|
C--------------------------|


1:14
PART D (2x)
F--------------------------| x 1
C--------------------------|
G-5-5-5-5-5-5-5-5----------|
C--------------------------|

F--------------------------| x 1
C--------------------------|
G-3-3-3-3-3-3-3-3----------|
C--------------------------|

F--------------------------| x 1
C--------------------------|
G--------------------------|
C-8-8-8-8-8-8-8-8----------|

F--------------------------| x 1
C--------------------------|
G--------------------------|
C-5-5-5-5-5-5-5-5----------|


1:26
PART B2 (1x)
F--------------------------| x 1
C--------------------------|     
G-5~---5-7--8-------8-8-10-|     
C--------------10~---------| 

F--------------------------| X 1
C--------------------------|
G-5~-----------------------|
C--------------10~---------| 

F--------------------------| x 1
C--------------------------|     
G-5~---5-7--8-------8-8-10-|     
C--------------10~---------| 

F--------------------------| X 1
C--------------------------|
G-5~-----------------------|
C--------------10~---------| 


1:50
PART C (2x)

2:02
PART D (4x)


2:26
PART E: (1x)
F--------------------------| x 2
C--------------------------|
G-5-5-5-5-5-5-5-5----------|
C--------------------------|

F--------------------------| x 2
C--------------------------|
G--------------------------|
C-8-8-8-8-8-8-8-8----------|

F--------------------------| x 2
C--------------------------|
G-1010101010101010---------|
C--------------------------|

F--------------------------| x 2
C--------------------------|
G-8-8-8-8-8-8-8-8----------|
C--------------------------|

F--------------------------| x 2
C--------------------------|
G-5-5-5-5-5-5-5-5----------|
C--------------------------|

F--------------------------| x 2
C--------------------------|
G--------------------------|
C-8-8-8-8-8-8-8-8----------|

F--------------------------| x 2
C--------------------------|
G-1010101010101010---------|
C--------------------------|

F--------------------------| x 1
C--------------------------|
G-8-8-8-8-8-8-8-8----------|
C--------------------------|

F--------------------------| x 1
C--------------------------|
G-7-7-7-7-7-7-7-7----------|
C--------------------------|


2:50
-Pause-

2:56
PART C (5x) ->leise beginnen (um die 2te Stimme zu ersetzen)

3:26
PART A (1x)

3:38
ENDE
F--------------------------| 
C--------------------------|
G-5~~~~--------------------|
C--------------------------|

PLEASE RATE AND COMMENT! =)
comments
We did not receive enough feedback on this tab! Please rate:
print report bad tab
1 2 3 4 5
1 comment total.
0 reply
zero83 wrote on July 15 2009, 03:48 pm

I got a little mistake on PART A.
Thats the right way:

F--------------------------| x 2
C--------------------------|
G-5-5-5-5-5-5-5-5----------|
C--------------------------|

F--------------------------| x 2
C--------------------------|
G--------------------------|
C-8-8-8-8-8-8-8-8----------|

F--------------------------| x 2
C--------------------------|
G-1010101010101010---------|
C--------------------------|

F--------------------------| x 1
C--------------------------|
G-8-8-8-8-8-8-8-8----------|
C--------------------------|

F--------------------------| x 1
C--------------------------|
G-7-7-7-7-7-7-7-7----------|
C--------------------------|

have fun with it! :)

I want to post or [tab]
guest
You may want to rate the tab now too:
select rating
Please do not post tabs as comments. Select "correction" instead!