Oops, an error
Loading. Please wait.

Empty Walls Bass Tab

version 3
version 3

Whole song

Interactive

1,526 views 9 this week
no commentswrite comment
1 2 3 4 5
accurate
x 3
add to favorites
launch autoscroll
font size
0
reset
guitar tuner
Autoscroll
slow
fast
+/-
esc
set tempo
stop
Help us to improve Ultimate-Guitar.com Take our survey!
×
Tuning
C G C F A D
Intro/Break
F|---------------------------------------|
C|---------------------------------------|X2
G|---------------------------------------|
C|-0(x8)-8(x8)-5(x8)-333333353-222222232-|


Verse 1
F|--------------|X3|---------|X1|--------------------|X1|-------------------|X1
C|--------------|X3|---------|X1|--------------------|X1|-------------------|X1
G|-5~--7-8------|X3|-5~------|X1|-5~--7-8-------8-11-|X1|-5~----------------|X1
C|----------10~-|X3|-----10~-|X1|----------10~-------|X1|-----10~-10-10-----|X1

Pre-Chorus
F|--------------------------|
C|--------------------------|
G|-5(x8)-3(x8)-10(x8)-8(x8)-|X2
C|--------------------------|

Chorus
F|--------------------------|
C|--------------------------|
G|--------------------------|X2
C|-10(x8)-8(x8)-5(x8)-3(x8)-|

Verse 2
F|--------------------|X1|---------|X1|--------------------|X1|-------------|X1
C|--------------------|X1|---------|X1|--------------------|X1|-------------|X1
G|-5~--7-8-------8-11-|X1|-5~------|X1|-5~--7-8-------8-11-|X1|-5~----------|X1
C|----------10~-------|X1|-----10~-|X1|----------10~-------|X1|-----10~-----|X1

Pre-Chorus
F|--------------------------|
C|--------------------------|X2
G|-5(x8)-3(x8)-10(x8)-8(x8)-|
C|--------------------------|

Chorus
F|--------------------------|
C|--------------------------|X4
G|--------------------------|
C|-10(x8)-8(x8)-5(x8)-3(x8)-|

Intro/Break
F|---------------------------------------|
C|---------------------------------------|
G|---------------------------------------|X2
C|-0(x8)-8(x8)-5(x8)-333333353-222222232-|

*pause*

Pre-Chorus
F|--------------------------|
C|--------------------------|
G|-5(x8)-3(x8)-10(x8)-8(x8)-|X4
C|--------------------------|

Intro/Break
F|---------------------------------------|
C|---------------------------------------|
G|---------------------------------------|
C|-0(x8)-8(x8)-5(x8)-333333353-222222232-|
Suggest correction
What's this?
You can suggest a correction to this tab. Community and Mods will review your correction and vote to approve or reject it.
comments
We did not receive enough feedback on this tab! Please rate:
print report bad tab
1 2 3 4 5
guest
You may want to rate the tab now too:
select rating
Please do not post tabs as comments. Select "correction" instead!