Oops, an error
Loading. Please wait.

Feed Us Tab

version 4
version 4

Whole song

Interactive

2,387 views 3 this week
2 commentsread comments
1 2 3 4 5
please rate
add to favorites
launch autoscroll
font size
0
reset
how to read this tab
guitar tuner
Tab Pro tools
  • play this tab
  • loop segment
  • change instrument
  • show fretboard
  • metronome
×
Best way to learn
"Feed Us"
Autoscroll
slow
fast
+/-
esc
set tempo
stop
Contributor
Difficulty
novice
----------------------------------------------------------------------------
                             Feed Us - Serj Tankian
----------------------------------------------------------------------------
Tabbed by: Titi Riendeau
Email:titiriendeau@hotmail.com

Tuning:Db Ab Db Gb Bb Eb

this is my 1'st tab so don't be rude with me, I think that it's 99% correct.
please rate and comment.
enjoy!!

Intro: Distorted
|---------------------------------------------------------------------|
|---------------------------------------------------------------------|
|---------------------------------------------------------------------|
|-4-4-4-4-4-4-7-7-3-3-3-3-3-3-6-6-4-4-4-4-4-4-7-7-9-9-9-9-12-12-12-12-| x2
|-4-4-4-4-4-4-7-7-3-3-3-3-3-3-6-6-4-4-4-4-4-4-7-7-9-9-9-9-12-12-12-12-|
|-4-4-4-4-4-4-7-7-3-3-3-3-3-3-6-6-4-4-4-4-4-4-7-7-9-9-9-9-12-12-12-12-|

Verse:
Guitar 1 - Clean
|--------------------------|
|--------------------------|
|--------------------------|
|--7\4-6\3-----7\4-3-6-----| x4
|--------------------------|
|--------------------------|

Guitar 2 - clean
|---------------------------------------------------------------|
|---------------------------------------------------------------|
|---------------------------------------------------------------|
|---7---7---7---7---7---6---6---6---6---6---7---7---7---7---7---|
|-9---9---9---9---9---8---8---8---8---8---9---9---9---9---9-----|
|---------------------------------------------------------------|

|-----------------------------------------|
|-----------------------------------------|
|-----------------------------------------|
|----9----9----9----12----12----12--------| x4
|-11---11---11----14----14----14----------|
|-----------------------------------------|

Pre-Chorus
you lead us when you need to feed us...
|------------------------------------------|
|------------------------------------------|
|--6---6---6---6---6---4---4---4---4-------|
|----4---4---4---4---4---2---2---2---2-----|x2
|------------------------------------------|
|------------------------------------------|

Chorus - Distorted
|-----------------------------------------------------------------------|
|-----------------------------------------------------------------------|
|-----------------------------------------------------------------------|
|4-4-4-4-4-4-4-4-7-7-7-7-7-7-7-7-9-9-9-9-9-9-9-9-12-12-12-12-12-12-12-12|x2 
|4-4-4-4-4-4-4-4-7-7-7-7-7-7-7-7-9-9-9-9-9-9-9-9-12-12-12-12-12-12-12-12|
|4-4-4-4-4-4-4-4-7-7-7-7-7-7-7-7-9-9-9-9-9-9-9-9-12-12-12-12-12-12-12-12|

repeat verse and the Chorus.

Interlude
|--------------------------------------|     |------------|
|----10--10-11-10----------------------|     |----10------|
|--7--------------9--10-10-12--10h12-9-|     |-7----------|
|--------------------------------------|x4   |------------|
|--------------------------------------|     |------------|
|--------------------------------------|     |------------|

repeat Intro and Chorus

Outro
 this fades in
|-----------------------------------------------------------------------|
|-----------------------------------------------------------------------|
|-----------------------------------------------------------------------|
|-----7----7---7--6---6----6---6-----7-----7---7-------9---------12-----|x2
|-9-9--9-9---9---8-8---8-8---8---9-9---9-9---9---11-11--11-14-14----14--|
|-----------------------------------------------------------------------|


| /  slide up
| \  slide down
| h  hammer-on
| p  pull-off
| ~  vibrato
| +  harmonic
| x  Mute note
============================================================================
comments
We did not receive enough feedback on this tab! Please rate:
print report bad tab
1 2 3 4 5
2 comments total.
0 reply
KingLear87 wrote on February 16 2008, 07:39 pm

Nice work! It's essentially right. I think your tuning is a half step too high though. I played it drop C, with every other note down a full half step, like the old SOAD tuning. That is the tuning that matches your tabs. I was playing along with the recording and the fourth time of the interlude I think it becomes really quiet and goes up an octave.

0 reply
ETHANR26 wrote on July 4 2008, 12:31 am

the tuning is right

I want to post or [tab]
guest
You may want to rate the tab now too:
select rating
Please do not post tabs as comments. Select "correction" instead!