Oops, an error
Loading. Please wait.

Harakiri Tab

version 3
version 3

Whole song

Interactive

8,076 views 15 this week
no commentswrite comment
1 2 3 4 5
accurate
x 4
add to favorites
launch autoscroll
font size
0
reset
how to read this tab
guitar tuner
Autoscroll
slow
fast
+/-
esc
set tempo
stop
Help us to improve Ultimate-Guitar.com Take our survey!
×
Difficulty
Tuning
intermediate
C G C F A D
Serj Tankian - Harakiri
Tuning drop C

Intro:
----------------------------------------------------|
----------------------------------------------------|
----------------------------------------------------|
----------------------------------------------------|
----------------------------------------------------|
---5-5-5-5--3-3-3-3--1-1-1-1--10--10--10--10--------|

--------------------------------------------------------------------|
--------------------------------------------------------------------|
--------------------------------------------------------------------|
---5-5---3-3---1-1---10--10-------5-5---3-3---1-1---3---------------|x4
---5-5---3-3---1-1---10--10-------5-5---3-3---1-1---3---------------|
---5-5---3-3---1-1---10--10-------5-5---3-3---1-1---3---------------|

----------------5---------|      --------5---------5------------|---8---------------|
----------8----------8----|      -----8----8---------8-----8----|------11--10-------|
-------7----7-----7----7--|x2  ---------------7--------7------|-----------------10--|
--------------------------|      --------------------------------|------------------|
--------------------------|      --------------------------------|------------------|
--5-----------------------|      --5-----------------------------|------------------|

----------5------------5----|--------------|
-------8----8-------------8-|------4~------|
----------------------------|--------------|
----------------------------|--5-----------|
--6-----------------6-------|--3-----------|
----------------------------|--------------|

---------------------10--------------|---8-------------------|--11------------------------|
-----------10-----------------10-----|------11--10-----------|------11-----------------4--|
-------12-----12---------12-------12-|-----------------10----|-----------12---------------|
--------------------------------------|-----------------------|---------------13---5------|
--10----------------------------------|-----------------------|---------------------3-----|
--------------------------------------|-----------------------|---------------------------|

--------------------------|------------------------------|
--------------------------|------------------------------|
--------------------------|------------------------------|
---3-------------8-----5--|----------3------8-----5------|
---1------5------6-----3--|---5------1------6-----3------|
----------5---------------|---5--------------------------|

----------------5----------|
----------8----------8-----|
-------7----7-----7----7---|x2
---------------------------|
---------------------------|
--5------------------------|

-----------------------------------------------------------------------------------------------|
-----------------------------------------------------------------------------------------------|
-----------------------------------------------------------------------------------------------|
-----------------------------------------------------------------------------------------------|
-----------------------------------------------------------------------------------------------|
-5-5--5-5-5-5-5--5-5--5-5-5-5-5-3-3--3-3-3-3-3--3-3--3-3-3-3-3-1-1--1-1-1-1-1--1-1--1-1-1-1-1--|

----------------------------------------------------|
----------------------------------------------------|
----------------------------------------------------|
----------------------------------------------------|
----------------------------------------------------|
--10-10--10-10-10-10-10--10-10--10-10-10-10-10------|

--------------------------|--------------------------------|
--------------------------|--------------------------------|
--------------------------|--------------------------------|
---3-------------8-----5--|----------3------8-----5--------|
---1------5------6-----3--|---5------1------6-----3--------|
----------5---------------|---5----------------------------|

--------------------------------------------------|      -------------------------------|
--------------------------------------------------|      -------------------------------|
--------------------------------------------------|      -------------------------------|
--------------------------------------------------|x3  ---5-5---3-3--1-1--10-10---------|
--------------------------------------------------|      ---5-5---3-3--1-1--10-10-------|
---5-5-5-5--3-3-3-3--1-1-1-1--10--10--10--10----|      ---5-5---3-3--1-1--10-10---------|

--------------------------------------------------------------------|
--------------------------------------------------------------------|
--------------------------------------------------------------------|
---5-5---3-3---1-1---10--10-------5-5---3-3---1-1---3---------------|x4
---5-5---3-3---1-1---10--10-------5-5---3-3---1-1---3---------------|
---5-5---3-3---1-1---10--10-------5-5---3-3---1-1---3---------------|

--------------------------|------------------------------|
--------------------------|------------------------------|
--------------------------|------------------------------|
---4-------------9-----6--|----------4------9-----6------|
---2------6------7-----4--|---6------2------7-----4------|
----------6---------------|---6--------------------------|

--------------------------------------------------------------|
--------------------------------------------------------------|
--------------------------------------------------------------|
---4-------------9-----6-----9-----6------9-----6-------6-----|
---2------6------7-----4-----7-----4------7-----4-------6-----|
----------6----------------------------------------------6----|
Suggest correction new What's this?
You can suggest a correction to this tab. Community and Mods will review your correction and vote to approve or reject it.
comments
print report bad tab
guest
You may want to rate the tab now too:
select rating
Please do not post tabs as comments. Select "correction" instead!