Oops, an error
Loading. Please wait.

Lie Lie Lie Tab

version 3
version 3

Whole song

Interactive

1,540 views 3 this week
2 commentsread comments
1 2 3 4 5
accurate
x 3
add to favorites
launch autoscroll
font size
0
reset
how to read this tab
guitar tuner
Tab Pro tools
  • play this tab
  • loop segment
  • change instrument
  • show fretboard
  • metronome
×
Best way to learn
"Lie Lie Lie"
Autoscroll
slow
fast
+/-
esc
set tempo
stop
Contributor
Difficulty
Tuning
intermediate
B F# B E G# C#
Lie Lie lie.

h = hammer on
p = pull of 
/ = Slide
~ = Let it ring
b = Bend

*Piano Intro*

D-----------------------------------------I
A--8-8-8-8h6------------------------------I
F-------------8-7-------------------------I        X 2
C-----------------------------------------I     
G-----------------------------------------I
C-----------------------------------------I

D-----------------------------------------I
A-----------------------------------------I
F--7-7-7-5-3-2------3-3-3h5p3-2-----------I        
C-----------------------------------------I     
G-----------------------------------------I
C-----------------------------------------I

D-----------------------------------------I
A--8-8-8-8h6------------------------------I
F-------------8-7-------------------------I        X 2
C-----------------------------------------I     
G-----------------------------------------I
C-----------------------------------------I


D-----------------------------------------I
A-----------------------------------------I
F--7-7-7-7h8-7h8/10---10-10-10-10h12-8-7--I        
C-----------------------------------------I     
G-----------------------------------------I
C-----------------------------------------I

Main Riff.

D-------------------------------------I
A-------------------------------------I
F--------------------5-5-5-5--7-7-7-7-I       X4 
C--5-5-5-5--3-3-3-3--5-5-5-5--7-7-7-7-I     
G--5-5-5-5--3-3-3-3--3-3-3-3--5-5-5-5-I
C--5-5-5-5--3-3-3-3-------------------I

Verse

D---------------------------------------------I
A---------------------------------------------I
F----------------------------5-5-5-5--7~------I       X2 
C----------------------------5-5-5-5--7~------I     
G----------------------------3-3-3-3--5~------I
C---------------------------------------------I

''...........................Let me go!'' 

Other Riff

D----------------------------I
A----------------------------I
F----------------------------I        
C-8--8--8--888--7--7--7--7~~~I     
G-8--8--8--888--7--7--7--7~~~I
C-8--8--8--888--7--7--7--7~~~I
                           

''Take my hand and let's end it all''

D----------------------------------I
A----------------------------------I
F----------------------------------I        
C--10-10-10-10-10-10--3-3-3-3-3-3--I     
G--10-10-10-10-10-10--3-3-3-3-3-3--I
C--10-10-10-10-10-10--3-3-3-3-3-3--I

''She broke her little bones On the boulders below''

D----------------------------I
A----------------------------I
F----------------------------I        
C-8--8--8--888--7--7--7--7~~~I     
G-8--8--8--888--7--7--7--7~~~I
C-8--8--8--888--7--7--7--7~~~I
                           
 
Verse.x2

Other Riff

D----------------------------I
A----------------------------I
F----------------------------I        
C-8--8--8--888--7--7--7--7~~~I     
G-8--8--8--888--7--7--7--7~~~I
C-8--8--8--888--7--7--7--7~~~I
                           

''Take my hand and let's end it all''

D----------------------------------I
A----------------------------------I
F----------------------------------I        
C--10-10-10-10-10-10--3-3-3-3-3-3--I     
G--10-10-10-10-10-10--3-3-3-3-3-3--I
C--10-10-10-10-10-10--3-3-3-3-3-3--I

''She broke her little bones On the boulders below''

D----------------------------I
A----------------------------I
F----------------------------I        
C-8--8--8--888--7--7--7--7~~~I     
G-8--8--8--888--7--7--7--7~~~I
C-8--8--8--888--7--7--7--7~~~I
                           


D----------------------------------I
A----------------------------------I
F----------------------------------I        
C--10-10-10-10-10-10--3-3-3-3-3-3--I     
G--10-10-10-10-10-10--3-3-3-3-3-3--I
C--10-10-10-10-10-10--3-3-3-3-3-3--I

''She broke her little bones On the boulders below''

D-----I
A-----I
F-----I     
C-7~--I     
G-7~--I
C-7~--I

''And while she fell I delightfully said,'' 

Bridge Riff

D---------------------------------------------I
A---------------------------------------------I
F----7----------------------7-----------8-8-7-I        
C--5---8-7-8-7-5-8-8-7b---5---8-7-8-7-5-------I     
G---------------------------------------------I
C---------------------------------------------I

''lalalalala lie lie lie''


Other Riff

D----------------------------I
A----------------------------I
F----------------------------I        
C-8--8--8--888--7--7--7--7~~~I     
G-8--8--8--888--7--7--7--7~~~I
C-8--8--8--888--7--7--7--7~~~I
                           

''Take my hand and let's end it all''

D----------------------------------I
A----------------------------------I-
F----------------------------------I        
C--10-10-10-10-10-10--3-3-3-3-3-3--I     
G--10-10-10-10-10-10--3-3-3-3-3-3--I
C--10-10-10-10-10-10--3-3-3-3-3-3--I

''She broke her little bones On the boulders below''

D----------------------------I
A----------------------------I
F----------------------------I        
C-8--8--8--888--7--7--7--7~~~I     
G-8--8--8--888--7--7--7--7~~~I
C-8--8--8--888--7--7--7--7~~~I
                           


D----------------------------------I
A----------------------------------I-
F----------------------------------I        
C--10-10-10-10-10-10--3-3-3-3-3-3--I     
G--10-10-10-10-10-10--3-3-3-3-3-3--I
C--10-10-10-10-10-10--3-3-3-3-3-3--I

''She broke her little bones On the boulders below''

D-----I
A-----I
F-----I     
C-7~--I     
G-7~--I
C-7~--I

''And while she fell I delightfully said,'' 

Outro Riff

D---------------------------------------------I
A---------------------------------------------I
F----7----------------------7-----------8-8-7-I        
C--5---8-7-8-7-5-8-8-7b---5---8-7-8-7-5-------I     
G---------------------------------------------I
C---------------------------------------------I

''lalalalala lie lie lie''

Credit to Trigsy6969
comments
We did not receive enough feedback on this tab! Please rate:
print report bad tab
1 2 3 4 5
2 comments total.
0 reply
swissgar wrote on March 3 2009, 01:38 am

The Lalalalala lie lie lie part is played like this

D-------------------------------------------------I
A-------------------------------------------------I
F----7------------------------7-------------8-8-7-I
C--5---8-7-8-7-5-7-8-8-7b---5---8-7-8-7-5-7-------I
G-------------------------------------------------I
C-------------------------------------------------I

0 reply
swissgar wrote on March 3 2009, 01:39 am

The Lalalalala lie lie lie part is played like this

D-------------------------------------------------I
A-------------------------------------------------I
F----7------------------------7-------------8-8-7-I
C--5---8-7-8-7-5-7-8-8-7b---5---8-7-8-7-5-7-------I
G-------------------------------------------------I
C-------------------------------------------------I

I want to post or [tab]
guest
You may want to rate the tab now too:
select rating
Please do not post tabs as comments. Select "correction" instead!